Song name
# A B C D E F G H I J K L M N O P Q R S T U V W X Y Z

Ac Dc - Up To My Neck In You tab

UP TO MY NECK IN YOU
guitar 1
E-------------||----------------------|--------------------||play 4 times
B---0-0-0-----||----------------------|-----------0-0-0----||
G---0-0-0--2--||.------4---2---4---2--|---2--4----0-0-0-2--||
D---0-0-0--2--||.------4---2---4---2--|---2--4----0-0-0-2--||
A-------------||----0----0---0---0----|--------0-----------||
E-------------||----------------------|--------------------||x4
guitar 2
E|------------||----------------------|-----------3--------||
B|---3-----2--||----------------------|-----------3-----2--||
G|---0-----2--||----------------------|-----------0-----2--||
D|---0-----2--||----------------------|-----------0-----2--||
A|---------0--||----------------------|-----------------0--||
E|---3--------||----------------------|-----------3--------||

RIFF

E-------------------------------3-3-3-------|play 3 times
B-------------------------------3-3-3-------|
G-------------------------------0-0-0--2----|
D---2--4---5----4--2----2--4----0-0-0--2----|
A---0--0---0----0--0----0--0-----------0----|
E-------------------------------3-3-3-------|x6

E------------------------------------------|
B-------------------------------------3----|
G-------------------------------5-5-5-2----|
D---2--4---5----4--2----2--4----5-5-5-0----|
A---0--0---0----0--0----0--0----3-3-3------|
E------------------------------------------|x2 then reapeat the other 1


guitar 1 REPEAT BOTH
E----------------------|------------------|-----------------------3----------
B----------------------|------------------|---3----2----3----3----3---------2
G----------------------|------------------|---2----2----2----2----0---------2
D---2---2---2---2------|--2-2-2---2---2---|---0----0----0----0----0---------2
A---2---2---2---2------|--2-2-2---2---2---|---------------------------------0
E---0---0---0---0------|--0-0-0---0---0---|-----------------------3----------
                                                                                 t
guitar 2
E----------------------|------------------|----------------------------------
B----------------------|------------------|-----------------------3--3--3---2
G----------------------|------------------|-----------------------0--0--0---2
D----------------------|------------------|---7----5----4----2----0--0--0---2
A-----------5----x---4-|-------2----------|---------------------------------0
E---0------------------|----0-------------|----------------------------------

SOLO

E|---------------------------------------------------------------------------------------------|
B|---------------------------------------------------------------------------------------------|
G|--5b------x-------------------------5b---------------5-------------------------5b--7--5b--7--5b
D|---------------7~~~~~~~~~~~~~~~~~~~~-------7~~~~~~~~----7-----7~~~~~~~~~~~~~~~---------------|
A|----------------------------------------0------------------x---------------------------------|
E|---------------------------------------------------------------------------------------------|

E|-------------------------------------------------------------5-------------------------------|
B|----------------------------------------------------------------5--8------5------------------|
G|-7--5b--7--5b---7-5b---7--5b---7---5b---7--5b--------5--7b------------7b------5--------------|
D|-----------------------------------------------7--7------------------------------7~~~~~~~~~~-|
A|---------------------------------------------------------------------------------------------|
E|---------------------------------------------------------------------------------------------|

E|----------------------------------------------------------------------------------------5----|
B|-----------8---8---8--8-----8--8--------10--8------8---8----8--8-----8--8-----7--5------5----|
G|--7b-----------7b--7--5-----7--5------9b----9------7b--5----7--5-8---7--5-----7--5--7b----7b-|
D|-------------------------7---------7-----------7---------7---------7-------7-----------------|
A|---------------------------------------------------------------------------------------------|
E|---------------------------------------------------------------------------------------------|

E|--5-----5------5------5------5-------5------5--------------------------8--7--5--8--7--5--7---|
B|--5-----5------5------5------5-------5------5--8--7^5----7------7--5---8--7--5--8--7--5--7---|
G|----7b-----7b-----7b-----7b-----7b------7b------------7----5b---7--5------------------------7|
D|---------------------------------------------------------------------------------------------|
A|---------------------------------------------------------------------------------------------|
E|---------------------------------------------------------------------------------------------|
                                                                             x3
E|--5--7-----------7----5---8^7--5-----------------------------------|---------|---------------|
B|--5--7---8-x--5--7----5---8^7--5--7---5------------7--5-------8--8-|-7/8-8-8-|-10--8--8--8---|
G|--------------------7---------------7---5---7-5----7--5--7^9--9--9-|-8/9-9-9-|-11--9--9--9---|
D|------------------------------------------7-----7------------------|---------|---------------|
A|-------------------------------------------------------------------|---------|---------------|
E|-------------------------------------------------------------------|---------|---------------|

E|----------------------------------------------------------------------------12--12-----------|
B|--7/8--8--8--8--7/8--8--8--10--10--10~~~~~~12^10--10~~~~~~~~13^10-10~~~~~~~~13b-13b----------|
G|--8/9--9--9--9--8/9--9--9--------------------------------------------------------------14\---|
D|---------------------------------------------------------------------------------------------|
A|---------------------------------------------------------------------------------------------|
E|---------------------------------------------------------------------------------------------|

E|------------------------------------------------------12---------12---------12-----------12--|
B|--10-13^10--10~~~~~~~-13^10--10~~~~~~~~~~-13^10----10-12b--------13b--x--13b-----x--13b----13|
G|------------------------------------------------11------------11/----------------------------|
D|---------------------------------------------------------------------------------------------|
A|---------------------------------------------------------------------------------------------|
E|---------------------------------------------------------------------------------------------|

E|--12------12~~~~-12-----12-----12------------------------------------------------------------|
B|--13--13--13~~~~-15b-------13b----14-----13--------13--------13-----------------17--17--17---|
G|-------------------------------------14------14~~-----14~~~~----14~~~-------14--16b-16b-16b--|
D|----------------------------------------------------------------------14-16------------------|
A|---------------------------------------------------------------------------------------------|
E|---------------------------------------------------------------------------------------------|

E|-----------------------------------------------------------15--12--12-12--12----12-----12--12|
B|--17--17--17--17-17-17-\----------17----/-14-----/14------------------15b-13b->-12-----13b-13b
G|--14--14------14-14-14-\--/-16-14----14-/-14-14--/14-14-14--------------------------14-------|
D|---------16----------------------------------------------------------------------------------|
A|---------------------------------------------------------------------------------------------|
E|---------------------------------------------------------------------------------------------|
                                                                      E   E    E      E    E 
E|----------------------------12---12-12-12-12-12-------------------------12-------12----------|
B|-----13--13----13--------13b----13b>>>>>>>>>>>>>--\10-10-10-~~\--x-12b-----12b--12b--10------|
G|--14--------14----14~~~~-----------------------------------------------------------------11--|
D|---------------------------------------------------------------------------------------------|
A|---------------------------------------------------------------------------------------------|
E|---------------------------------------------------------------------------------------------|
 E     E         E             E        D7          D7         C    D   C   A
E|----------------------------------------------------------------------------------------17---|
B|-10--10--10~~~~------10----------10~~~~-----10~~~~---10~~~~-----10~~~~~-10-10------10\--20---|
G|----------------12b-----12b-------------12b-------12--------12b---------------12b------------|
D|---------------------------------------------------------------------------------------------|
A|---------------------------------------------------------------------------------------------|
E|---------------------------------------------------------------------------------------------|

E|-17--------17-17-17-17-17-17-17-17-17-17-17-17-17-17--17-------------------------------------|
B|-10b~~~~~~-20-20b-20b-20b-20b-20b-20b-20b-20b-20-20b-----20-20b-r-17~~~~~~~~~----------------|
G|---------------------------------------------------------------------------------------------|
D|---------------------------------------------------------------------------------------------|
A|---------------------------------------------------------------------------------------------|
E|---------------------------------------------------------------------------------------------|

ENDING  FREE TIME (A)
E|------------------------------------||
B|-----------------------------------|||
G|--4b-r-^2------------------------2--||
D|----------4b--2------------------2--||
A|-----------------3b-r^0----------0--||
E|------------------------------------||
Tap to rate this tab
 
# A B C D E F G H I J K L M N O P Q R S T U V W X Y Z