Song name
# A B C D E F G H I J K L M N O P Q R S T U V W X Y Z

Ac Dc - First Blood tab

			     First Blood by AC/DC
Tabbed by:letsgetitup
Tuning:Standard

Intro Angus:
E|-----------------------------------------------------------------|
B|--2h3-3--2h3-3--2h3--3---2h3--2---2h3--3--2h3--3--2h3--3--2h3--3-|
G|--2---2--2---2--2----2---2----3---2----2--2----2--2----2--3----2-|
D|-----------------------------------------------------------------|
A|-----------------------------------------------------------------|
E|-----------------------------------------------------------------|

on 3rd and 4th time Malcolm joins
e|-----------------------------|
B|------3-3------3-3------3-3--|
G|--2-2-2-2--2-2-2-2--2-2-2-2--|
D|--2-2-0-0--2-2-0-0--2-2-0-0--|
A|--0-0------0-0------0-0------|
E|-----------------------------|

Intro part b: both guitars x 4
e|------3-----------------------|
B|------3-3--------3-3-----3-3--|
G|--0h2-0-2-2--2-2-2-2-2-2-2-2--|
D|--0h2-0-0-2--2-2-0-0-2-2-0-0--|
A|--0---x---0--0-0-----0-0------|
E|------3-----------------------|

Verse:x
e|------3------|
B|------3-3----|
G|--0h2-0-2-2--|
D|--0h2-0-0-2--|on 4th and 8th time let the A5 chord ring
A|--0---x---0--|
E|------3------|

Pre-Chorus:both guitars
e|------------3-------|
B|------------3-------|
G|------------0-------|
D|----3-3-----0-------|
A|----3-3-----x-------|
E|-0h-1-1-x4--2h3-x4--|

Chorus:x2
e|------------------3-3--------------------------3-3---3--|
B|----------------3-3-3-3----------------------3-3-3-3-3--|
G|--2------5------2-0-0-2--5-7---2------5------2-0-0-2-0--|
D|--2------5------0-0-0-0--5-7---2------5------0-0-0-0-0--|
A|--0------3------x-x-x-x--3-5---0------3------x-x-x-x-x--|
E|----------------2-3-3-2----------------------2-3-3-2-3--|
    First  Blood                 First  Blood

Verse:x4
Then Pre-chorus
Then chorus on that chorus pay the last part 3x
During solo Malcolm plays: Intro part bx4
                           then the pre-chorus

Back to chorus
Then intro Part A
Then intro Part B until end, end on A% chord

| h  hammer-on
| p  pull-off
| ~  vibrato
| +  harmonic
| x  Mute note
===========================================================================
Tap to rate this tab
 
# A B C D E F G H I J K L M N O P Q R S T U V W X Y Z