Song name
# A B C D E F G H I J K L M N O P Q R S T U V W X Y Z

Ac Dc - Snake Eyes tab

hi an outtake song from ACDC.

 Tabber:Markus W
 from Wilhelmshaven
 Germany
                         SNAKE EYE from ACDC

Intro Stabdart Tuning
e--------------------------------------------------------------|
h------------------------------------------3-------------------|
g---------------------------------------2--2-5-----------------|
D---------------------------------------2--0-5-----------------|
A--3-2-0----0-2-3-3-2-0-----0-2-3---3---0----3-----------------|
E--------1-1------------1-1------------------------------------|

This is the Intro.Listen to the song fot timing.

Verse: You paint a picture.....

e--------------------------------------------------|
h-----3---------3----------------------------------|
g-2---2--5--2---2-5--------------------------------|
D-2-5-0--5--2-5-0-5--------------------------------|
A-0-5----3--0-5---3--------------------------------|
E---3---------3------------------------------------|

Chorus:

e-------------------------------------------------------------|
h----3----------------------------------------------3---------|
g-2--2--------------------------------------------2-2-5-------|
D-2--0--------------------------------------------2-0-5-------|
A-0-----3-2-0--------------2----------------------0---3-------|
E-------------1-1-1slide-3------------------------------------|


The end of the song:

e---------------------------------------------|
h---------------------------------------------|
g------------------------2--------------------|
D------------------------2-ring out-----------|
A-3--2--0-----0-2--3-----0--------------------|
E---------1-1---------------------------------|

Play this notes slow listen to the song

This was the song. I know i have forgot the timing,but all the notes must be
rigt.Find the timing out.Listen to the song and have fun.Herbert K riecht.

Bye Bye
Tap to rate this tab
 
# A B C D E F G H I J K L M N O P Q R S T U V W X Y Z