Song name
# A B C D E F G H I J K L M N O P Q R S T U V W X Y Z

Ac Dc - Fling Thing tab

Help us improve GuitareTab! Take a short survey!
TABBED BY: DUDE_PORKY@hotmail.com

Now this is how i play this song. Im not sure if its right but i rekon it sounds cooler.


					AC/DC

				    "FLING THING"

RIFF 1
E---3--------------3-------------/
B--------------------------------/
G--------------------------------/  X2
D--------------------------------/
A---2--------------2-------------/
E---3--------------3-------------/


RIFF 2

Guitar 1
E--------------------------------------------------/
B--------------------------------------------------/
G--0-2p0-0-4p0-0-2p0-0-4p0-0-2p0-0-4p0-0-2p0-0-----/
D----------------------------------------------2p0-/
A--------------------------------------------------/
E--------------------------------------------------/

E--------------------------------------------------/
B--------------------------------------------------/
G-2p0-0-4p0-0-2p0-0-4p0-0-2p0-0-4p0-0-2p0-0-0------/
D--------------------------------------------------/
A--------------------------------------------------/
E--------------------------------------------------/

Repeat that Twice but guitar 2 comes in the second time and plays this.

E------------------------------------/
B-2-4-2-4-2-4-2------2-4-2-4-2-4-2-0-/
G-2-4-2-4-2-4-2-2----2-4-2-4-2-4-2-0-/
D---------------2--------------------/
A------------------------------------/
E------------------------------------/

RIFF 3

Guitar 1

E--------------------------------------------------------------------------|
B----------------------------------------3-5=-3----------3h5-5-3h0-0-3h1-0-|
G--0-0-2h4-4-2h0-0-------------0-0-2h4-4-----------------------------------|
D------------------2h0-0-----2---------------------------------------------|
A--------------------------------------------------------------------------|
E--------------------------------------------------------------------------|


E--------------------------------------------------------------------------|
B----------------0-3h5-3-0-------------------------------------------------|
G--2-0---------0-----------2h4h2--0----------------------------------------|
D------2-0---2--------------------0----------------------------------------|
A--------------------------------------------------------------------------|
E--------------------------------------------------------------------------|


Theres also a 2 part its just

E--------------------------------------------------------------------------|
B-----------------------------0---3h5-3--3h5--3h0--------------------------|
G-2h4--2h4--2h0---------0---2----------------------2h0----------0----0-----|
D---------------2h0---2---------------------------------2h0---2----2-------|
A--------------------------------------------------------------------------|

then wait till the end of riff 3 when part 1 goes g-2h3h2, part 2 goes g-2-0
Related for Fling Thing tab