Song name
# A B C D E F G H I J K L M N O P Q R S T U V W X Y Z

Ac Dc - Send For The Man tab

----------------------------------------------------------------------------
                       Send For The Man - AcDc
----------------------------------------------------------------------------
Tabbed by: wingman901
Email: wingman901@sbcglobal.net


INTRO
-------------------------------------------------------|
-------------------------------------------------------|
-----3/5---3/5--3/5---3-----3/5------------------------|
--5--3/5---3/5--3/5---3--5--3/5------------------------|
--5--1/3---1/3--1/3---1--5--1/3------------------------|
--3----------------------3-----------------------------|

Lead "just a little lust"
----8--7-5------|
----------------|
----------------|
----------------|
----------------|

"you want a bad reputation"  (Repeat)
-------------------------------------------------------|
-------------------------------------------------------|
---7-------5-------3-----------------------------------|
---7----7--5----5--3----3---3--5~--3--5~---------------|
---5--5----3--3----1--1-----3--5~--3--5~---------------|
----------------------------1--3~--1--3~---------------|

Intro to Chorus
-------------------------|
-------------------------|
-------------------------|
--3--5~--3--5~--3--5~~---|
--3--5~--3--5~--3--5~~---|
--1--3~--1--3~--1--3~~---|

CHORUS

Lead  "You're good enough to eat"
--------------|-----------------------------------------|
--12/14~~~~---|-----------------------------------------|
--------------|-----------------------------------------|
--------------|-----------------------------------------|
--------------|----5~~~~--5~~~---5~~~-------------------|
--------------|-----------------------------------------|

"Sticky hot and sweet"
----------------------8-10~~-10~~--13-10~~~~-----------|
-------------------------------------------------------|
-------------------------------------------------------|
-------------------------------------------------------|
-------------------------------------------------------|
-------------------------------------------------------|

-------------------------------------------------------|
-------------------------------------------------------|
---7-------5-------3-----------------------------------|
---7----7--5----5--3----3---3--5~--3--5~---------------|
---5--5----3--3----1--1-----3--5~--3--5~---------------|
----------------------------1--3~--1--3~---------------|

Lead   "I got the goods in my hand"
------------------------------|
------------------------------|
------------------------------|
----9--11~~~---14--16~~~------|
------------------------------|
------------------------------|

"Send For The Man"

SOLO

During Solo
-------------------------------------------------------|
-------------------------------------------------------|
---7-------5-------3-----------------------------------|
---7----7--5----5--3----3---3--5~--3--5~---------------|
---5--5----3--3----1--1-----3--5~--3--5~---------------|
----------------------------1--3~--1--3~---------------|

In Chorus, Lead           "Send for..."
-------------------------------------------------------|
--13/15~~~---13--11-13/15~~~-------20~~--18~~~--15~----|
-------------------------------------------------------|
-------------------------------------------------------|
-------------------------------------------------------|
-------------------------------------------------------|

"Send For The Man"
-------------------------------------------------------|
-------------------------------------------------------|
-------------------------------------------------------|
--------------------12--10--12---12--10----------------|
-----------------------------------------12~~~---------|
-------------------------------------------------------|
Tap to rate this tab
# A B C D E F G H I J K L M N O P Q R S T U V W X Y Z