Guitaretab - guitar tabs
Song name
# A B C D E F G H I J K L M N O P Q R S T U V W X Y Z

Ac Newman - 35 In The Shade tab

Intro:(piano octaves)
D  E  G  Bb  
D

Verse:
D                      E                       G    Bb  D
Game on, Cleopatra get mad, pull a rabbit from your top hat. 
                 E
Pick a card, any card, 
                      G     Bb  F                   G
When they kept to the yard, you strayed - 35 in the shade. 

Verse:
Game on, Cleopatra get down, leave your coat in the lost and found. 
Coasting purely on feel, 
Where the others would steal, you paid - 35 in the shade. 

Chorus:
        Bb            Eb           Gm           Bb
Tell me I'm - tell me I'm the best argument for our side. 
      Bb          Eb             Gm           Bb                  F
Every time, every time, the best argument for our side comes from you. 
      Eb        G               D
All joking aside, there goes my ride. 
[ Tab from: http://www.guitaretab.com/a/ac-newman/101744.html ]
e|-------------1h3p1-|-----------1h3p1-|
b|---3h4p3-----------|---3h4p3---------|  x 2
g|-------------------|-----------------|
d|-------------------|-----------------|
a|-------------------|-----------------|
e|-------------------|-----------------|

   Bb       Eb         Gm      Bb
Verse:
Game on, I found you in the stars, holding court in a downstairs bar, 
Until the champions arrived, 
Where the others survived, we played - 35 in the shade.

Chorus: 
Tell me I'm - tell me I'm the best argument for our side. 
Every time, every time, the best argument for our side comes from you. 
All joking aside, there goes my ride.

Solo:(same chords as verse)
(with excessive sliding)
e|-------------------------|----------------------|-------------|
b|-3--357-53---357-53--3---|-357-53---357-53--3-1-|-----6-3-1-3-|
g|----------4--------4---2-|-------4--------4-----|----5--------| x 2
d|-------------------------|----------------------|-357---------|
a|-------------------------|----------------------|-------------|
e|-------------------------|----------------------|-------------|

Cheers.
Related for 35 In The Shade tab