Acab - Bersama Semula tab


Solo intro
E|-----5--5--5--5---------5--5--5--5---------7--7--7--7---------7--7----------|
B|-------5--5--5--5---------7--7--7--7---------9--9--9--9---------7--7--------|
G|----------------------------------------------------------------------------|
D|----------------------------------------------------------------------------|
A|----------------------------------------------------------------------------|
E|----------------------------------------------------------------------------|

Solo intro
E|-----7-9-7-5---------5--5--5--5---------4--4----3--3----4--4-----7-9-5------|
B|-----------------------5--5--5--5---------3--3----2--2----3--3--------------|
G|----------------------------------------------------------------------------|
D|----------------------------------------------------------------------------|
A|----------------------------------------------------------------------------|
E|----------------------------------------------------------------------------|



A5       G#5            F#5     E5            D5    
Terkenang..dan terbayang tak dapat aku lupakan 
           C#5    B5                 E5
tapi sayang semuanya tinggal kenangan
A5      G#5        F#5    E5             D5
teman ku kekasih ku ku ingin seperti dulu
       C#5    B5        E5
bersama menjelajah dunia

Repeat Intro

A5     G#5        F#5      E5               D5
kekuatan kebanggaan bebas dan terus berjalan
     C#5          B5            E5
kenangan tak mungkin aku lupakan 
A5        G#5         F#5      E5           D5
dan kuharap teman semua dapat bersama semula
       C#5       B5              E5
perjuangan kita masih belum pudah
D5    A5       D5       A5
kemananya..    teman setia
D5     A5                B5 E5           
perjuangan..   ku ingin kau semua 
             A5
bersama semula

Solo..

D5    A5       D5       A5
kemananya..    teman setia
D5     A5                B5 E5           
perjuangan..   ku ingin kau semua
D5    A5       D5       A5
kemananya..    teman setia
D5     A5                B5 E5           
perjuangan..   ku ingin kau semua
            A5
bersama semula

Solo.. 


Solo 
E|----------------------------------------------------------------------------|
B|---------------------------------------7------------------------------------|
G|------------------6-9-----------6--------9------6-9------7-----6------------|
D|-----7-------7-9-------------7-9------------|-9------------------9-7-|------|
A|----------------------------------------------------------------------------|
E|----------------------------------------------------------------------------|

Solo 
E|------------------------------------------------------------------9-12------|
B|-------------------------------------------------------|-10-10-12-----------|
G|-----7-9-7---6-6--------------6-------------6-------------------------------|
D|----------------------|-9-9-7---9-|-----9-9---9-7---------------------------|
A|----------------------------------------------------------------------------|
E|----------------------------------------------------------------------------|

Solo 
E|-----------9-14-12------------9-12---10-9-------------10-12-10-9-9----------|
B|-----10-12-------------10-12--------------12--10-|--------------------------|
G|----------------------------------------------------------------------------|
D|----------------------------------------------------------------------------|
A|----------------------------------------------------------------------------|
E|----------------------------------------------------------------------------|

Solo 
E|-----------------9---------------9-----------------------17-----------------|
B|-----12-12-10-12---12------12-12---12-10------------------------------------|
G|----------------------------------------------------------------------------|
D|----------------------------------------------------------------------------|
A|----------------------------------------------------------------------------|
E|----------------------------------------------------------------------------|

Tap to rate this tab
 
# A B C D E F G H I J K L M N O P Q R S T U V W X Y Z