Song name
# A B C D E F G H I J K L M N O P Q R S T U V W X Y Z

Acab - Bunga Padang Pasir tab

	E|-----7-------------10-10-9-9-7-9------10-10-9-9-7-7-------------|
	B|-------10-7-10-8-----------------8------------------12-12-------|
	G|----------------------------------------------------------------|
	D|----------------------------------------------------------------|
	A|----------------------------------------------------------------|
	E|----------------------------------------------------------------|

	E|--------------------------7-9-10-----10-7-----------------------|
	B|--------------7-h8-7----7-----------------12--8-7---------------|
	G|-------7-8-10--------10-----------------------------------------|
	D|----10----------------------------------------------------------|
	A|----------------------------------------------------------------|
	E|----------------------------------------------------------------|


	E|--------------------------10-9/10/9/10/9--7---------------------|
	B|--------------7-h8-7----7---------------------------------------|
	G|-------7-8-10--------10-----------------------------------------|
	D|----10----------------------------------------------------------|
	A|----------------------------------------------------------------|
	E|----------------------------------------------------------------|
Tap to rate this tab
 
# A B C D E F G H I J K L M N O P Q R S T U V W X Y Z