Song name
# A B C D E F G H I J K L M N O P Q R S T U V W X Y Z

Acab - Acab tab

-------------------------------------------------------------------------------
                              A.C.A.B - A.C.A.B.
-------------------------------------------------------------------------------
Tabbed by: musangblokf
Email: musangblokf@yahoo.com

Tuning: Standard E

Intro & Verse:

e|-----------------|-----------------|-----------------|-----------------|
B|-----------------|-----------------|-----------------|-----------------|
G|-----------------|-7-7-7-5-5-5-4-4-|-----------------|-----------------|
D|-7---7-7-7-7-7-7-|-7-7-7-5-5-5-4-4-|-5---5-5-5-5-5-5-|-5-5-5-5-3---5---|
A|-7---7-7-7-7-7-7-|-5-5-5-3-3-3-2-2-|-5---5-5-5-5-5-5-|-5-5-5-5-3---5---|
E|-5---5-5-5-5-5-5-|-----------------|-3---3-3-3-3-3-3-|-3-3-3-3-1---3---|
      |-palm mute-|                       |-palm mute-palm mute-|

Chorus:

e|----------------|-----------------|---------------------------------|
B|----------------|-----------------|---------------------------------|
G|----------------|-----------------|---------------------------------|
D|-3--3-3-3-3-3-3-|-5---5-5-5-5-5-5-|-7-7-7-9-9-9-1010109-9-9-7-7-5-5-|
A|-3--3-3-3-3-3-3-|-5---5-5-5-5-5-5-|-7-7-7-9-9-9-1010109-9-9-7-7-5-5-|
E|-1--1-1-1-1-1-1-|-3---3-3-3-3-3-3-|-5-5-5-7-7-7-8-8-8-7-7-7-5-5-3-3-|

e|----------------|-----------------|---------------------------------|
B|----------------|-----------------|---------------------------------|
G|----------------|-----------------|---------------------------------|
D|-3--3-3-3-3-3-3-|-5---5-5-5-5-5-5-|-7-7-7-7-7-7-7-7-7-7-7-7-7-7-7-7-|
A|-3--3-3-3-3-3-3-|-5---5-5-5-5-5-5-|-7-7-7-7-7-7-7-7-7-7-7-7-7-7-7-7-|
E|-1--1-1-1-1-1-1-|-3---3-3-3-3-3-3-|-5-5-5-5-5-5-5-5-5-5-5-5-5-5-5-5-|

 vERY EASY ;)

===============================================================================
Tap to rate this tab
# A B C D E F G H I J K L M N O P Q R S T U V W X Y Z