Song name
# A B C D E F G H I J K L M N O P Q R S T U V W X Y Z

Accept - Restless And Wild tab

#----------------------------------PLEASE NOTE---------------------------------#
#This file is the author's own work and represents their interpretation of the #
#song. You may only use this file for private study, scholarship, or research. #
#------------------------------------------------------------------------------#

RESTLESS AND WILD
As recorded by Accept
(From the 1981 Album RESTLESS AND WILD)

Transcribed by Drimascus_God_Of_Thunder
	

Words and Music by Accept

Gtr I (E A D G B E) - 'Rhythm'
Gtr II (E A D G B E) - 'Lead'

 Intro
  Q=138
  E
 4/4
  Gtr I
  PM-------------------------------------------------
  E S S E S S E S S E S S   E S S E S S E S S E S S
|-------------------------|-------------------------|
|-------------------------|-------------------------|
|-------------------------|-------------------------|
|-------------------------|-------------------------|
|-------------------------|-------------------------|
|-0-0-0-0-0-0-0-0-0-0-0-0-|-0-0-0-0-0-0-0-0-0-0-0-0-|


 -------------------------------------------------|
  E S S E S S E S S E S S   E S S E S S E S S E S S
|-------------------------|--------------------------|
|-------------------------|--------------------------|
|-------------------------|--------------------------|
|-------------------------|--------------------------|
|-------------------------|--------------------------|
|-0-0-0-0-0-0-0-0-0-0-0-0-|-0-0-0-0-0-0-0-0-0-0-0-0--|


   Main Riff
    D5 E5            D5            C5
         PM--------|         PM--|
    q  E S S E S S E E   +E  S S E E +H
||---------------------|--------------------|
||o--------------------|--------------------|
||---------------------|--------------------|
||--7--9-------------7-|-(7)-------5-(5)----|
||o-5--7-------------5-|-(5)-------3-(3)----|
||-------0-0-0-0-0-0---|-----0-0-0----------|


  D5 E5            D5        A5
       PM--------|
  q  E S S E S S E E   +E  E E E +H
|--------------------|-------------------||
|--------------------|------------------o||
|--------------------|-------------------||
|-7--9-------------7-|-(7)---7-7-(7)-----||
|-5--7-------------5-|-(5)---7-7-(7)----o||
|------0-0-0-0-0-0---|-----0-5-5-(5)-----||


   Verse 1 & 2
    G                     D
                                                   ~~~
    W          +H..       E   +W           +H     +H
||-----------|--------------|------------|---------------|
||o----------|--------------|------------|---------------|
||-----------|------------7-|-(7)--------|-(7)----(7)----|
||--5--------|-(5)----------|------------|---------------|
||o----------|--------------|------------|---------------|
||-----------|--------------|------------|---------------|


  D5 E5            D5            C5
       PM--------|         PM--|
  q  E S S E S S E E   +E  S S E E +H
|--------------------|--------------------|
|--------------------|--------------------|
|--------------------|--------------------|
|-7--9-------------7-|-(7)-------5-(5)----|
|-5--7-------------5-|-(5)-------3-(3)----|
|------0-0-0-0-0-0---|-----0-0-0----------|


  D5 E5            D5        A5
       PM--------|
  q  E S S E S S E E   +E  E E E +H
|--------------------|------------------|
|--------------------|------------------|
|--------------------|------------------|
|-7--9-------------7-|-(7)---7-7-(7)----|
|-5--7-------------5-|-(5)---7-7-(7)----|
|------0-0-0-0-0-0---|-----0-5-5-(5)----|


  G                     D
                                                 ~~~
  W          +H..       E   +W           +H     +H
|----------|--------------|------------|---------------|
|----------|--------------|------------|---------------|
|----------|------------7-|-(7)--------|-(7)----(7)----|
|-5--------|-(5)----------|------------|---------------|
|----------|--------------|------------|---------------|
|----------|--------------|------------|---------------|


  D5 E5            D5            C5
       PM--------|         PM--|
  q  E S S E S S E E   +E  S S E E +H
|--------------------|--------------------|
|--------------------|--------------------|
|--------------------|--------------------|
|-7--9-------------7-|-(7)-------5-(5)----|
|-5--7-------------5-|-(5)-------3-(3)----|
|------0-0-0-0-0-0---|-----0-0-0----------|


  D5 E5            D5        A5
       PM--------|
  q  E S S E S S E E   +E  E E E +H
|--------------------|------------------|
|--------------------|------------------|
|--------------------|------------------|
|-7--9-------------7-|-(7)---7-7-(7)----|
|-5--7-------------5-|-(5)---7-7-(7)----|
|------0-0-0-0-0-0---|-----0-5-5-(5)----|


 Bridge
  C5                    A5 B5       A5    B5          C5
  W          W          q  H    +E  E   E H..         W          W
|----------|----------|---------------|-------------|----------|------|
|----------|----------|---------------|-------------|----------|------|
|----------|----------|---------------|-------------|----------|------|
|-5--------|-5--------|-2--4----(4)-2-|---4---------|-5--------|-5----|
|-3--------|-3--------|-0--2----(2)-0-|---2---------|-3--------|-3----|
|----------|----------|---------------|-------------|----------|------|


 Chorus
  N.C.                  C5C5                               A5A5
  PM------------------|              PM------------------|
  E E E E E E E E   E E E E +H       E E E E E E E E   E E E E +H
|-----------------|----------------|-----------------|----------------|
|-----------------|----------------|-----------------|----------------|
|-----------------|-------5-(5)----|-----------------|----------------|
|-----------------|-----5-5-(5)----|-----------------|-------7-(7)----|
|-7-5-7-7-5-7-7-5-|-7-7-3-3-(3)----|-7-5-7-7-5-7-7-5-|-7-7-7-7-(7)----|
|-----------------|----------------|-----------------|-----5-5-(5)----|


                        C5C5
  PM------------------|              PM------------------------------|
  E E E E E E E E   E E E E +H       E E E E E E E E   E E E E E E E E
|-----------------|----------------|-----------------|-----------------|
|-----------------|----------------|-----------------|-----------------|
|-----------------|-------5-(5)----|-----------------|-----------------|
|-----------------|-----5-5-(5)----|-----------------|-----------------|
|-7-5-7-7-5-7-7-5-|-7-7-3-3-(3)----|-7-5-7-7-5-7-7-5-|-7-7-6-5-4-3-2-1-|
|-----------------|----------------|-----------------|-----------------|


  1.
  G5 A5            G5            F5
       PM--------|         PM--|
  q  E S S E S S E E   +E  S S E E +H
|--------------------|--------------------|
|--------------------|--------------------|
|-7--9-------------7-|-(7)-------5-(5)----|
|-5--7-------------5-|-(5)-------3-(3)----|
|------0-0-0-0-0-0---|-----0-0-0----------|
|--------------------|--------------------|


  G5 A5            G5        D5
       PM--------|
  q  E S S E S S E E   +E  E E E +H
|--------------------|------------------|
|--------------------|------------------|
|-7--9-------------7-|-(7)---7-7-(7)----|
|-5--7-------------5-|-(5)---7-7-(7)----|
|------0-0-0-0-0-0---|-----0-5-5-(5)----|
|--------------------|------------------|


  G5 A5            G5            F5
       PM--------|         PM--|
  q  E S S E S S E E   +E  S S E E +H
|--------------------|--------------------|
|--------------------|--------------------|
|-7--9-------------7-|-(7)-------5-(5)----|
|-5--7-------------5-|-(5)-------3-(3)----|
|------0-0-0-0-0-0---|-----0-0-0----------|
|--------------------|--------------------|


  G5 A5            G5        D5D5
       PM--------|
  q  E S S E S S E E   +E  E E E +H
|--------------------|-------------------||
|--------------------|------------------o||
|-7--9-------------7-|-(7)---7-7-(7)-----||
|-5--7-------------5-|-(5)---7-7-(7)-----||
|------0-0-0-0-0-0---|-----0-5-5-(5)----o||
|--------------------|-------------------||


   Interlude
    2.
    B5                E5 D5   E5                 E5 E5
    W          +H     Q  Q    H    H      +H     Q  Q
||-----------|--------------|-----------|---------------|
||o----------|--------------|-----------|---------------|
||--4--------|-(4)----9--7--|-9----9----|-(9)-----------|
||--4--------|-(4)----9--7--|-9----9----|-(9)----9------|
||o-2--------|-(2)----7--5--|-7----7----|-(7)----7--2---|
||-----------|--------------|-----------|-----------0---|


                          1.                         2.
  A5         D5 C#5D5 C#5  B5                        E5         F#5
  W          Q  Q  Q  Q    W          +W             W          W
|----------|-------------|----------|-------------||----------|------|
|----------|-------------|----------|------------o||----------|------|
|----------|-------------|-4--------|-(4)---------||----------|------|
|-7--------|-7--6--7--6--|-4--------|-(4)---------||-2--------|-4----|
|-7--------|-5--4--5--4--|-2--------|-(2)--------o||-2--------|-4----|
|-5--------|-------------|----------|-------------||-0--------|-2----|


 Guitar Solo
  B5                             E5              F#5
  Q  E E Q  E E   Q  E E Q  Q    Q  E E Q  E E   Q  E E Q  E E
|---------------|--------------|---------------|---------------|
|---------------|--------------|---------------|---------------|
|---------------|--------------|---------------|---------------|
|-4----4-4----4-|-4----4-4-----|---------------|---------------|
|-2----2-2----2-|-2----2-2-----|-2----2-2------|-4----4-4----4-|
|---------------|--------------|-0----0-0----0-|-2----2-2----2-|


  B5                             E5              F#5
  Q  E E Q  E E   Q  E E Q  Q    Q  E E Q  E E   Q  E E Q  E E
|---------------|--------------|---------------|---------------|
|---------------|--------------|---------------|---------------|
|---------------|--------------|---------------|---------------|
|-4----4-4----4-|-4----4-4-----|---------------|---------------|
|-2----2-2----2-|-2----2-2-----|-2----2-2------|-4----4-4----4-|
|---------------|--------------|-0----0-0----0-|-2----2-2----2-|


  B5                             E5              F#5
  Q  E E Q  E E   Q  E E Q  Q    Q  E E Q  E E   Q  E E Q  E E
|---------------|--------------|---------------|---------------|
|---------------|--------------|---------------|---------------|
|---------------|--------------|---------------|---------------|
|-4----4-4----4-|-4----4-4-----|---------------|---------------|
|-2----2-2----2-|-2----2-2-----|-2----2-2------|-4----4-4----4-|
|---------------|--------------|-0----0-0----0-|-2----2-2----2-|


  B5                             E5              D5 C#5D5 C#5
  Q  E E Q  E E   Q  E E Q  Q    Q  E E Q  E E   Q  Q  Q  Q
|---------------|--------------|---------------|-------------|
|---------------|--------------|---------------|-------------|
|---------------|--------------|---------------|-------------|
|-4----4-4----4-|-4----4-4-----|---------------|-7--6--7--6--|
|-2----2-2----2-|-2----2-2-----|-2----2-2------|-5--4--5--4--|
|---------------|--------------|-0----0-0----0-|-------------|


  B5
  W          +W           +W           +W
|----------|------------|------------|--------|
|----------|------------|------------|--------|
|-4--------|-(4)--------|-(4)--------|-(4)----|
|-4--------|-(4)--------|-(4)--------|-(4)----|
|-2--------|-(2)--------|-(2)--------|-(2)----|
|----------|------------|------------|--------|


 Verse 3
  G                     D
                                                 ~~~
  W          +H..       E   +W           +H     +H
|----------|--------------|------------|---------------|
|----------|--------------|------------|---------------|
|----------|------------7-|-(7)--------|-(7)----(7)----|
|-5--------|-(5)----------|------------|---------------|
|----------|--------------|------------|---------------|
|----------|--------------|------------|---------------|


  D5 E5            D5            C5
       PM--------|         PM--|
  q  E S S E S S E E   +E  S S E E +H
|--------------------|--------------------|
|--------------------|--------------------|
|--------------------|--------------------|
|-7--9-------------7-|-(7)-------5-(5)----|
|-5--7-------------5-|-(5)-------3-(3)----|
|------0-0-0-0-0-0---|-----0-0-0----------|


  D5 E5            D5        A5
       PM--------|
  q  E S S E S S E E   +E  E E E +H
|--------------------|------------------|
|--------------------|------------------|
|--------------------|------------------|
|-7--9-------------7-|-(7)---7-7-(7)----|
|-5--7-------------5-|-(5)---7-7-(7)----|
|------0-0-0-0-0-0---|-----0-5-5-(5)----|


  G                     D
                                                 ~~~
  W          +H..       E   +W           +H     +H
|----------|--------------|------------|---------------|
|----------|--------------|------------|---------------|
|----------|------------7-|-(7)--------|-(7)----(7)----|
|-5--------|-(5)----------|------------|---------------|
|----------|--------------|------------|---------------|
|----------|--------------|------------|---------------|


  D5 E5            D5            C5
       PM--------|         PM--|
  q  E S S E S S E E   +E  S S E E +H
|--------------------|--------------------|
|--------------------|--------------------|
|--------------------|--------------------|
|-7--9-------------7-|-(7)-------5-(5)----|
|-5--7-------------5-|-(5)-------3-(3)----|
|------0-0-0-0-0-0---|-----0-0-0----------|


  D5 E5            D5        A5A5
       PM--------|
  q  E S S E S S E E   +E  E E E +H
|--------------------|------------------|
|--------------------|------------------|
|--------------------|------------------|
|-7--9-------------7-|-(7)---7-7-(7)----|
|-5--7-------------5-|-(5)---7-7-(7)----|
|------0-0-0-0-0-0---|-----0-5-5-(5)----|


 Bridge
  C5                    A5 B5       A5    B5          C5
  W          W          q  H    +E  E   E H..         W          W
|----------|----------|---------------|-------------|----------|------|
|----------|----------|---------------|-------------|----------|------|
|----------|----------|---------------|-------------|----------|------|
|-5--------|-5--------|-2--4----(4)-2-|---4---------|-5--------|-5----|
|-3--------|-3--------|-0--2----(2)-0-|---2---------|-3--------|-3----|
|----------|----------|---------------|-------------|----------|------|


 Chorus
  N.C.                  C5C5                               A5A5
  PM------------------|              PM------------------|
  E E E E E E E E   E E E E +H       E E E E E E E E   E E E E +H
|-----------------|----------------|-----------------|----------------|
|-----------------|----------------|-----------------|----------------|
|-----------------|-------5-(5)----|-----------------|----------------|
|-----------------|-----5-5-(5)----|-----------------|-------7-(7)----|
|-7-5-7-7-5-7-7-5-|-7-7-3-3-(3)----|-7-5-7-7-5-7-7-5-|-7-7-7-7-(7)----|
|-----------------|----------------|-----------------|-----5-5-(5)----|


                        C5C5
  PM------------------|              PM------------------------------|
  E E E E E E E E   E E E E +H       E E E E E E E E   E E E E E E E E
|-----------------|----------------|-----------------|-----------------|
|-----------------|----------------|-----------------|-----------------|
|-----------------|-------5-(5)----|-----------------|-----------------|
|-----------------|-----5-5-(5)----|-----------------|-----------------|
|-7-5-7-7-5-7-7-5-|-7-7-3-3-(3)----|-7-5-7-7-5-7-7-5-|-7-7-6-5-4-3-2-1-|
|-----------------|----------------|-----------------|-----------------|


 Outro
  G5 A5            G5     D5E5  D5E5    G5E5
       PM--------|
  q  E S S E S S E E   Q  E E E E E E   E E Q  H
|--------------------|----------------|-------------*|
|--------------------|----------------|-------------*|
|-7--9-------------7-|----------------|-7-9---------*|
|-5--7-------------5-|----7-9---7-9---|-5-9---------*|
|------0-0-0-0-0-0---|----5-7---5-7---|---7---------*|
|--------------------|----------------|-------------*|



Duration Legend
---------------
W - whole; H - half; Q - quarter; E - 8th; S - 16th; T - 32nd; X - 64th; a - acciaccatura
+ - note tied to previous; . - note dotted; .. - note double dotted
Uncapitalized letters represent notes that are staccato (1/2 duration)
Irregular groupings are notated above the duration line
Duration letters will always appear directly above the note/fret number it represents the
duration for.  Duration letters with no fret number below them represent rests.  Multi-
bar rests are notated in the form Wxn, where n is the number of bars to rest for.  Low
melody durations appear below the staff

Tablature Legend
----------------
 h   - hammer-on
 p   - pull-off
 b   - bend
 pb  - pre-bend
 r   - bend release (if no number after the r, then release immediately)
 /\  - slide into or out of (from/to "nowhere")
 s   - legato slide
 S   - shift slide
 - natural harmonic
[n]  - artificial harmonic
n(n) - tapped harmonic
 ~   - vibrato
 tr  - trill
 T   - tap
 TP  - trem. picking
 PM  - palm muting
\n/  - tremolo bar dip; n = amount to dip
 \n  - tremolo bar down
 n/  - tremolo bar up
/n\  - tremolo bar inverted dip
 =   - hold bend; also acts as connecting device for hammers/pulls
 <> - volume swell (louder/softer)
 x   - on rhythm slash represents muted slash
 o   - on rhythm slash represents single note slash

Misc Legend
-----------
 |  - bar
||  - double bar
||o - repeat start
o|| - repeat end
*|  - double bar (ending)
 :  - bar (freetime)
 $  - Segno
 &  - Coda
Tempo markers -  = BPM(8/16=s8/s16), where s8 = swing 8ths, s16 = swing 16ths

Tap to rate this tab
# A B C D E F G H I J K L M N O P Q R S T U V W X Y Z