Guitaretab - guitar tabs
Song name
# A B C D E F G H I J K L M N O P Q R S T U V W X Y Z

Accept - I Dont Wanna Be Like You tab

              
                 Accept - I don't Wanna be like like you
Made by: Nils538

|----------|-----------------------|-----------------------------|
|----------|-----------------------|-----------------------------|
|----------|--------------0-2-2-0--|----------0------------------|
|-----5--2-|------2-------0-2-2-0--|----2-----0--0---------------|
|-----5--2-|------2---2------------|----2--2-----0---------------|
|----------|---0-------------------|-0---------------------------|


|--------------------------|--------------------------------|
|--------------------------|--------------------------------|
|------------- 0-2-2-0-----|-----------------0--0-----------|
|------2-------0-2-2-0-----|-----------2-----0--0-----------|
|------2---2---------------|-----------2--2-----------------|
|---0----------------------|-------0------------------------|



[ Tab from: http://www.guitaretab.com/a/accept/89414.html ]
|-----------------------|-----------------------------|
|-----------------------|-----------------------------|
|--------------0-2-2-0--|----------0------------------|
|------2-------0-2-2-0--|----2-----0--0---------------|
|------2---2------------|----2--2-----0---------------|
|---0-------------------|-0---------------------------|


|--------------------------|--------------------------------|
|--------------------------|--------------------------------|
|------------- 0-2-2-0-----|-----------------0--0-----------|
|------2-------0-2-2-0-----|-----------2-----0--0-----------|
|------2---2---------------|-----------2--2-----------------|
|---0----------------------|-------0------------------------|

|-----------------------|-----------------------------|
|-----------------------|-----------------------------|
|--------------0-2-2-0--|----------0------------------|
|------2-------0-2-2-0--|----2-----0--0---------------|
|------2---2------------|----2--2-----0---------------|
|---0-------------------|-0---------------------------|


|--------------------------|------------------------------------|
|--------------------------|------------------------------------|
|------------- 0-2-2-0-----|------------------4--2--0-----------|
|------2-------0-2-2-0-----|----------2-------4--2--0-----------|
|------2---2---------------|----------2---2---------------------|
|---0----------------------|-------0----------------------------|



Related for I Dont Wanna Be Like You tab
×
I Dont Wanna Be Like You