Guitaretab - guitar tabs
Song name
# A B C D E F G H I J K L M N O P Q R S T U V W X Y Z

Accept - Bound To Fail tab

          Accept - Bound to fail

b=bend



|--------------------|----------------------|
|--------------------|----------------------|
|---------6--9--9----|--b9--9--7--9--9--7---|
|------7-------------|----------------------|
|--------------------|----------------------|
|--------------------|----------------------|


|------------------------------|-----------------------------|
|--------6--9--7---6/7/6-------|---7---6/7/6-----------------|
|----7---------------------7---|----------------7-------9----|
|------------------------------|-----------------------------|
|------------------------------|-----------------------------|
|------------------------------|-----------------------------|
[ Tab from: http://www.guitaretab.com/a/accept/89416.html ]
|--------------------|----------------------|
|--------------------|----------------------|
|---------6--9--9----|--b9--9--7--9--9--7---|
|------7-------------|----------------------|
|--------------------|----------------------|
|--------------------|----------------------|

|------------------------------|-----------------------------|
|--------6--9--7---6/7/6-------|---7---6/7/6-----------------|
|----7---------------------7---|----------------7-------9----|
|------------------------------|-----------------------------|
|------------------------------|-----------------------------|
|------------------------------|-----------------------------|

|----------------------------------|-----------------------------|
|-----7---6/7/6--------------------|-----------------------------|
|------------------7-------9-----b9|---b9--b9---b9---b9---9------|
|----------------------------------|-----------------------------|
|----------------------------------|-----------------------------|
|----------------------------------|-----------------------------|
Related for Bound To Fail tab
Advertisement will be closed in 10 seconds