Guitaretab - guitar tabs
Song name
# A B C D E F G H I J K L M N O P Q R S T U V W X Y Z

Accept - Losing More Than You Ever Had tab

               accept - Losing more than you ever head

By: Nils538



|--------|-------------------------------|---------------------------------|
|--------|-----3--------3----------------|----6---------6------------------|
|--------|-----2--------2----------------|----5---------5------------------|
|--------|--------0--0-----0--0--0--0----|--------0--0------0---0--0--0----|
|--------|-------------------------------|---------------------------------|
|---10---|-------------------------------|---------------------------------|
[ Tab from: http://www.guitaretab.com/a/accept/89417.html ]
|----------------------------|----------------------------|
|--5--------5----------------|---3-------3----------------|
|--5--------5----------------|---3-------3----------------|
|-----0--0-----0--0--0--0----|-----0--0-----0--0--0--0----|
|----------------------------|----------------------------|
|----------------------------|----------------------------|

||-------------------------------|---------------------------------|
||-----3--------3----------------|----6---------6------------------|
||-----2--------2----------------|----5---------5------------------|
||--------0--0-----0--0--0--0----|--------0--0------0---0--0--0----|
||-------------------------------|---------------------------------|
||-------------------------------|---------------------------------|
                                                          *3
|----------------------------|----------------------------||
|--5--------5----------------|---3-------3----------------||
|--5--------5----------------|---3-------3----------------||
|-----0--0-----0--0--0--0----|-----0--0-----0--0--0--0----||
|----------------------------|----------------------------||
|----------------------------|----------------------------||












Related for Losing More Than You Ever Had tab
Advertisement will be closed in 10 seconds