Song name
# A B C D E F G H I J K L M N O P Q R S T U V W X Y Z

Acceptance - Different tab

=================================================================================================
EMAIL ID: kalyan_lds@yahoo.co.in

TUNING: STANDARD; NO CAPO

Hi...this song is one of my all time favorites...too bad the band broke up...well, the 
tab on this site doesn't have the intro and solo and i made a few corrections here n 
to royturner23 for the lyrics and skeleton...anyway, here it is, the entire tab...

This is dedicated to a really great girl...
=================================================================================================

INTRO-

Gtr 1 (DISTORTION)
   D               B               A               G                E
E|-0-0-0-0-0-0-0-0-0-0-0-0-0-0-0-0-0-0-0-0-0-0-0-0-0-0-0-0-0-0-0-0--0~~-|
B|-3-3-3-3-3-3-3-3-3-3-3-3-3-3-3-3-3-3-3-3-3-3-3-3-3-3-3-3-3-3-3-3--0~~-|
G|-2-2-2-2-2-2-2-2-4-4-4-4-4-4-4-4-2-2-2-2-2-2-2-2-0-0-0-0-0-0-0-0--0~~-|
D|-0-0-0-0-0-0-0-0-4-4-4-4-4-4-4-4-2-2-2-2-2-2-2-2-0-0-0-0-0-0-0-0--0~~-|
A|-0-0-0-0-0-0-0-0-2-2-2-2-2-2-2-2-0-0-0-0-0-0-0-0------------------2~~-|
E|-------------------------------------------------3-3-3-3-3-3-3-3--0~~-|

Gtr 2 (CLEAN)
E|----------------------------------------------------------|
B|----------------------------------------------------------|
G|-11-9-7-14-------11-12-11-7-9----11-12-11-7-9----7-9------| PLAY AROUND WITH THE LAST NOTES
D|----------------------------------------------------------|
A|----------------------------------------------------------|
E|----------------------------------------------------------|

=================================================================================================

VERSE 1-

Bm          D       A    Bm
Tell myself, on the ride home.
              D       A        Bm
Getting tired, hating all I've known.
           D          A     Bm
Holding on, like it's all I have.
             D          A
Count me out, when it's clear that

G          A
I, find it hard to say.
    G            A
And you, find it hard to care.

=================================================================================================

CHORUS 1-

Gtr 1 (clean)
E||---0-----0-----0---0-----0-------0-----0-------0-----0-----0----||
B||-----3-----3---------3-----3-------2-----2-------3-----3--------||
G||-------2-----2---------4-----4-------2-----2-------0-----0------|| (x2)
D||-0--------------------------------------------------------------||
A||-----------------2-------------0--------------------------------||
E||---------------------------------------------3------------------||

Gtr 2 (clean)
E||--0~~--(0)---0~~--(0)---0~~--(0)---0~~--(0)---||
B||o-3~~--(3)---3~~--(3)---3~~--(3)---3~~--(3)--o||
G||--2~~--(2)---4~~--(4)---2~~--(2)---0~~--(0)---||
D||--0~~--(0)---4~~--(4)---2~~--(2)---0~~--(0)---||
A||o------------2~~--(2)---0~~--(0)-------------o||
E||-----------------------------------3~~--(3)---||

D           Bm
I wanted to see
                 A
Something that's different
          G                        D
Something you said would change in me.
          Bm
Wanted to be
         A
Anything different
           G
Everything you would change in me.

=================================================================================================

VERSE 2-

Gtr 1 clean                            x4
E||------------------------------------||
B||o-8-8-8-8-8-8--x-x--3-3-3-3-3--x-x-o||
G||--9-9-9-9-9-9--x-x--4-4-4-4-4--x-x--||
D||---------------x-x-------------x-x--||
A||o-7-7-7-7-7-7--x-x--2-2-2-2-2--x-x-o||
E||------------------------------------||

Got this way up front but never true
God im wrong it's just the way I am
Crashing down any chance of it
                          G
Caving in any chance that you,

	A
Can see inside of me,
    G            A
And I, I'll know what to say,
     G		     A
It's fine this isn't hollywood,
   G      	A
So fine getting in your way...

=================================================================================================

CHORUS 2-

Gtr 1,2 distortion
   D               B               A               G
E||--0-0-0-0-0-0-0-0-0-0-0-0-0-0-0-0-0-0-0-0-0-0-0-0-0-0-0-0-0-0-0-0--||
B||o-3-3-3-3-3-3-3-3-3-3-3-3-3-3-3-3-3-3-3-3-3-3-3-3-3-3-3-3-3-3-3-3-o||
G||--2-2-2-2-2-2-2-2-4-4-4-4-4-4-4-4-2-2-2-2-2-2-2-2-0-0-0-0-0-0-0-0--||
D||--0-0-0-0-0-0-0-0-4-4-4-4-4-4-4-4-2-2-2-2-2-2-2-2-0-0-0-0-0-0-0-0--||
A||o-0-0-0-0-0-0-0-0-2-2-2-2-2-2-2-2-0-0-0-0-0-0-0-0-----------------o||
E||--------------------------------------------------3-3-3-3-3-3-3-3--||

D           Bm
I wanted to see
                 A
Something that's different
          G                        D
Something you said would change in me.
          Bm
Wanted to be
         A
Anything different
           G
Everything you would change in me.

=================================================================================================

SOLO-

E|------------------------------------------------------------------|
B|------------------------------------------------------------------|
G|-6-7-7-7-7-7-9-9-9-6-(X2)-9-11-11-11-11-12-12-11-7-7-7-6-6-6-6----|
D|------------------------------------------------------------------| (X2)
A|------------------------------------------------------------------|
E|------------------------------------------------------------------|

Guitar 2 plays the chorus chords under this.

=================================================================================================

BRIDGE-

(THE FIRST PART IS ON PIANO.)

I'm taking a chance,
This could be different,
This could be all I'm waiting for,

GUITAR COMES IN HERE
Gtr 1 (clean)
E||---0-----0-----0---0-----0-------0-----0-------0-----0-----0----||
B||-----3-----3---------3-----3-------2-----2-------3-----3--------||
G||-------2-----2---------4-----4-------2-----2-------0-----0------||
D||-0--------------------------------------------------------------||
A||-----------------2-------------0--------------------------------||
E||---------------------------------------------3------------------||

Taking a chance,
This could be different,
This could be all im waiting for...

=================================================================================================

CHORUS-

Gtr 1 (clean)
E||---0-----0-----0---0-----0-------0-----0-------0-----0-----0----||
B||-----3-----3---------3-----3-------2-----2-------3-----3--------||
G||-------2-----2---------4-----4-------2-----2-------0-----0------|| (x2)
D||-0--------------------------------------------------------------||
A||-----------------2-------------0--------------------------------||
E||---------------------------------------------3------------------||

Gtr 2 (clean)
E||--0~~--(0)---0~~--(0)---0~~--(0)---0~~--(0)---||
B||o-3~~--(3)---3~~--(3)---3~~--(3)---3~~--(3)--o||
G||--2~~--(2)---4~~--(4)---2~~--(2)---0~~--(0)---||
D||--0~~--(0)---4~~--(4)---2~~--(2)---0~~--(0)---||
A||o------------2~~--(2)---0~~--(0)-------------o||
E||-----------------------------------3~~--(3)---||

D           Bm
I wanted to see
                 A
Something that's different
          G                        D
Something you said would change in me.
          Bm
Wanted to be
         A
Anything different
           G
Everything you would change in me.

=================================================================================================

OUTRO

Gtr 1 clean
E||------------------------------------||
B||o-8-8-8-8-8-8--x-x--3-3-3-3-3--x-x-o||
G||--9-9-9-9-9-9--x-x--4-4-4-4-4--x-x--|| FADE OUT
D||---------------x-x-------------x-x--||
A||o-7-7-7-7-7-7--x-x--2-2-2-2-2--x-x-o||
E||------------------------------------||

Something that's different...

=================================================================================================

That's it..enjoy...God bless...
Tap to rate this tab
# A B C D E F G H I J K L M N O P Q R S T U V W X Y Z