Acceptance - Over You tab

INTRO
e|-------------------9--8---9--8-------------------------------------------|
B|----11------9-----------9------9-----------------------------------------|
G|-10----8--10--10---------------------------------------------------------|
D|-------------------------------------------------------------------------|
A|-------------------------------------------------------------------------|
E|-------------------------------------------------------------------------|

e|-------------------9--8----9-11-13---------------------------------------|
B|----11------9----------9-------------------------------------------------|
G|-10----8--10--10---------------------------------------------------------|
D|-------------------------------------------------------------------------|
A|-------------------------------------------------------------------------|
E|-------------------------------------------------------------------------|
Tap to rate this tab
 
# A B C D E F G H I J K L M N O P Q R S T U V W X Y Z