Song name
# A B C D E F G H I J K L M N O P Q R S T U V W X Y Z

Acdc - Back In Black tab

Help us improve GuitareTab! Take a short survey!
Key:
T=play with thumb
/=slide up
\=Slide down
^=bend
F=Full tone
p=Pull off


---------------------|----3-0----------------
---------------------|-------3-0-------------
-----7-7-7-----------|----------2^F^p0-------
--2--7-7-7--7-7-7----|-----------------------
--2--5-5-5--7-7-7----|-----------------------
--0---------5-5-5----|-----------------------


---------------------|-----------------------
---------------------|-----------------------
-----7-7-7-----------|-----------------------
--2--7-7-7--7-7-7----|-----------------------
--2--5-5-5--7-7-7----|--2--2--2--2-----------
--0---------5-5-5----|---4--5--6--7\---------


Tha is all i can remember if you what any other tabs 
email me bonedigerz28@hotmail.com


i have more
Related for Back In Black tab