Song name
# A B C D E F G H I J K L M N O P Q R S T U V W X Y Z

Acdc - Back In Black Intro tab

Clean Tone

      Em       A         D
e |--------------------2-2-2------3p0-----------|
b |----------2-2-2-----3-3-3----------3p0-------|
g |----0-----2-2-2-----2-2-2--------------2~~p0-| intro RIFF 1 
D |----2-----2-2-2-----0-0-0--------------------|
A |----2-----0-0-0------------------------------|
E |----0----------------------------------------|

      Em       A         D  
e |--------------------2-2-2-------------------------|
b |----------2-2-2-----3-3-3-------------------------|
g |----0-----2-2-2-----2-2-2-------------------------| intro RIFF2
D |----2-----2-2-2-----0-0-0-------------------------|
A |----2-----0-0-0---------------2---2--0--2---2-----|
E |----0---------------------------4---------6---7/0-|
Tap to rate this tab
# A B C D E F G H I J K L M N O P Q R S T U V W X Y Z