Song name
# A B C D E F G H I J K L M N O P Q R S T U V W X Y Z

Ace Enders And A Million Different People - Over This tab

the version 2 of this tab on this site is good but it didnt have the second guitar so i 
i'd tab it.  i think most of its rit. hope u enjoy peace!

0:33
e|-----------------------------------------------------------|
B|-10------9-------10------9-------10------9-----------------|
G|----9------9-11~----9------9-11~----9------9-11~------9-9~-|
D|------11--------------11--------------11---------9/11------|
A|-----------------------------------------------------------|
E|-----------------------------------------------------------|

1:13
e|-----------------------------------------------------------------|
B|-10------9---------10------9---------10------9-------------------|
G|----9------9-11-9~----9------9-11-9~----9------9-11-9~------9-9~-|
D|------11----------------11----------------11-----------9/11------|
A|-----------------------------------------------------------------|
E|-----------------------------------------------------------------|

1:30
e|-----------------------------------------------------------------|
B|-10------9---------10------9---------10------9-------------------|
G|----9------9-11-9~----9------9-11-9~----9------9-11-9~------9-9~-|
D|------11----------------11----------------11-----------9/11------|
A|-----------------------------------------------------------------|
E|-----------------------------------------------------------------|

2:14
e|-------------------------------------|
B|-------------------------------------|
G|-------------------------------------|
D|-7-6-7---7-6-----7-6-7---7-6---------|
A|-------7-----7-9-------7-----7-9~-7~-|
E|-------------------------------------|

2:26
e|--------------------------------------------------------------------------------|
B|----------12b-------------------------------------------------------------------|
G|-11-14-11-----11-14----11---11------------------------------------------13b-11--|
D|--------------------14---------14-11----------11-14-11---11-11-11-11-11---------|
A|-------------------------------------14-12-14------------12-14-12-14-12---------|
E|--------------------------------------------------------------------------------|

------------------------------|
------------------------------|
--11-11-----------------------|
14----------------------------|
--------14b-14-12-14-12----12-|
------------------------14----|
Tap to rate this tab
# A B C D E F G H I J K L M N O P Q R S T U V W X Y Z