Song name
# A B C D E F G H I J K L M N O P Q R S T U V W X Y Z

Ace Enders And A Million Different People - Sweeter Light tab

Band: Ace Enders And A Million Different People
Song: Sweeter Light
Album: When I Hit The Ground
Tabbed By: Matt Florio; myspace.com/mattflorio2
Email: shempashland@yahoo.com

This is a simple song and a very fun song to play.
If you play along with the CD it will help make sense of the chords and lead parts.
This is one of Ace's favorite songs to play live. If you have any comments or 
questions, contact me.

Tuning: Standard

Intro
Guitar 1
e-------------------------------------------------------|
b-------------------------------------------------------|
g-------------------------------------------------------|
d------12--12-------------------------------------------|
a----14--14--14/12--12--12--------14-12-14/16-14-12-11--|
e---------------------14--14-14/12----------------------|

Guitar 2
e-------------------------|
b-------------------------|
g------------7-----9------|
d----77---9--7--7--9------|
a----77---9--5--7--7------|
e----55---7-----5---------|

Verse
e-----------------------------------|
b-----------------------------------|
g-----------7---------9-------------|
d------9----7----7----9-------------|
a------9----5----7----7-------------|
e------7---------5------------------|
"as I go down..."

Guitar 1
e-----10--10--10-10--12--12--12--12--12--12--12--12--12--12--12--12-|
b--12--12--12-12--14--14--14--14--10--10--10--10--12--12--12--12----|
g-------------------------------------------------------------------|
d-------------------------------------------------------------------|
a-------------------------------------------------------------------|
e-------------------------------------------------------------------|
"I said oh... oh youre my sweeter light."

Guitar 2
e------------------------------------|
b------------------------------------|
g----------7---------9---------------|
d-----9----7----7----9---------------|
a-----9----5----7----7---------------|
e-----7---------5--------------------|
"I said oh... oh youre my sweeter light.."

Pre Chorus
e------------------------------|
b------------------------------|
g-------777777-----------------|
d-------777777-----------------|
a-------555545-----------------|
e------------------------------|

Chorus
e---------------------------------|
b---------------------------------|
g---------9---------7-------------|
d----7----9----4----7-------------|
a----7----7----4----5-------------|
e----5---------2------------------|
"As the moments...."

Intro
Verse
Pre Chorus

2nd Chorus
e-------------------------|-----------------------------|
b-------------------------|-----------------------------|
g-----------9---------7---|---------9----7---------9----|
d------7----9----4----7---|----4----9----7----7----9----|
a------7----7----4----5---|----4----7----5----7----7----|
e------5---------2--------|----2--------------5---------|

Bridge/Outro (same chords as verses repeated until end)
Tap to rate this tab
# A B C D E F G H I J K L M N O P Q R S T U V W X Y Z