Song name
# A B C D E F G H I J K L M N O P Q R S T U V W X Y Z

Ace Enders And A Million Different People - From A Daze tab

-------------------------------------------------------------------------------
			     SONG NAME - Band Name
-------------------------------------------------------------------------------
Tabbed by:JeremiahTEN

Tuning:standard

its just a down strum throughout most of the song unless you wanna change it up, im not 
to right out the chords for each strum either

       Intro/Verse
e|----------------------------------------------------------------------------------|
B|----------------------------------------------------------------------------------|
G|---------------------------5------------4-----------3-----------------------------|
D|------5---------5----------5------------4-----------4-----------------------------|
A|------8---------7----------0------------x-----------x-----------------------------|
E|------x---------x----------x------------2-----------2-----------------------------|

PreChorus: and all i know..
e|---------------------------------------------------------------------------

B|------------------------------------------------------------------------------|
G|--------5---------------------------------------------------------------------|
D|--------5---------------------------------------------------------------------|
A|--------3---------------------------------------------------------------------|
E|--------1---------------------------------------------------------------------|

Chrous
e|----------------------------------------------------------------------------------|
B|----------------------------------------------------------------------------------|
G|--------5----------5---------5----------5---------5-------------------------------|
D|--------5----------5---------5----------5---------5-------------------------------|
A|--------3----------3---------x----------x---------3-------------------------------|
E|--------x----------1---------5----------3---------1-------------------------------|

Intro Verse
Prechorus
Chorus
Intro Verse
Prechrous Chorus
end of song. theres a solo and all that but im not that good yet

| /  slide up
| \  slide down
| h  hammer-on
| p  pull-off
| ~  vibrato
| +  harmonic
| x  Mute note
===============================================================================
Tap to rate this tab
 
# A B C D E F G H I J K L M N O P Q R S T U V W X Y Z