Song name
# A B C D E F G H I J K L M N O P Q R S T U V W X Y Z

Ace Enders And A Million Different People - The Motion tab

Ace Enders and a Million Different People
The Secret Wars(2008)
Motion

Download Ace's new FREE album "The Secret Wars" from Fuse.com

Stumming Pattern not shown..it's simple to figure out

Standard Tuning


Intro/Verse 
e|------------------------|
B|------------------------|
G|---6--6--6--6-----------| 
D|---8--8--8--8-----------| 3x
A|---9--8--7--6-----------|
E|------------------------|

Pre chorus 
e|--------------|
B|--------------|
G|------6-------|
D|------8-------| 1x
A|------x-------|
E|------9-------|

Chorus 
e|------------------------|
B|------------------------|
G|----6--6--6----6--6-----|
D|----8--8--8----8--8-----| 1x
A|----9--x--x----9--x-----|
E|-------9--7-------9-----|

Verse 
e|------------------------|
B|------------------------|
G|---6--6--6--6-----------|
D|---8--8--8--8-----------| 2x
A|---9--8--7--6-----------|
E|------------------------|

Pre chorus 
e|--------------|
B|--------------|
G|------6-------|
D|------8-------| 1x
A|------x-------|
E|------9-------|


Chorus
e|------------------------|
B|------------------------|
G|----6--6--6----6--6-----|
D|----8--8--8----8--8-----| 1x
A|----9--x--x----9--x-----|
E|-------9--7-------9-----|

Bridge Part 1 (slight palm mute)
e|------------------------------------|
B|------------------------------------|
G|----6---6---6---6---6---6---6---6---| 
D|----8---8---8---8---8---8---8---8---| 3x
A|------------------------------------|
E|--7---7---7---7---9---9---9---9-----|

e|------------------------|
B|------------------------|
G|----6---6---6---6---6---| 
D|----8---8---8---8---8---| 1x
A|--------------------x---|
E|--7---7---7---7-----9---|


Bridge Part 2
e|---------------|
B|---------------|
G|---6---6-------|
D|---8---8-------| 4x
A|---x---x-------|
E|---7---9-------|

Outro
e|--------------------------------------|
B|--------------------------------------|
G|----6---6---6---6---6---6---6---6-----| 
D|----8---8---8---8---8---8---8---8-----| 1x
A|--------------------------------------|
E|--7---7---7---7---9---9---9---9-------|

End on
e|-------|
B|-------|
G|---6---|
D|---8---| 
A|---x---|
E|---7---|







Tap to rate this tab
# A B C D E F G H I J K L M N O P Q R S T U V W X Y Z