Ace Hood - Top Of The World tab

-------------------------------------------------------------------------------
			     top of the world - ace hood
-------------------------------------------------------------------------------
Tabbed by: ariel I.
Email:pogo443@gmail.com

Tuning: i listened to the song then listened to the piano cover and came up with 
this...its not the whole thing but this is as far as i got..

e|----------------------18-16-14-16-18--------------------14------14-----14--|
B|---------16----------------------------------16-----16-------16----16------|
G|---------------------------------------------------------------------------|
D|---------------------------------------------------------------------------|
A|---------------------------------------------------------------------------|
E|---------------------------------------------------------------------------|

e|-----------16---------14-------------15-----16---------14------------------|
B|---16------16--------------16--------16-----16-----------------------------|
G|--------------------------------------------------------------repeat-------|
D|---------------------------------------------------------------------------|
A|---------------------------------------------------------------------------|
E|---------------------------------------------------------------------------|



************************************

| /   slide up
| \   slide down
| h   hammer-on
| p   pull-off
| ~   vibrato
| +   harmonic
| x   Mute note
| b   Bend
| pb  Pre-bend
| br  Bend release
| pbr Pre-bend release
| brb Bend release bend

************************************
Tap to rate this tab
 
# A B C D E F G H I J K L M N O P Q R S T U V W X Y Z