Song name
# A B C D E F G H I J K L M N O P Q R S T U V W X Y Z

Ace Of Base - Dont Turn Around tab

-------------------------------------------------------------------------------
                                       Don't Turn Around - Ace of Bass
-------------------------------------------------------------------------------
Tabbed by:      Adrian Bennett
E-mail:         adbenne@yahoo.com

Tuning: Standard

e|---------------------------------------------------------------------------|
B|-------------------------------------13--12--------------------------------|
G|-14--12--14--12--14--------------------------14----------------------------|
D|---------------------14--14--12--14----------------------------------------|
A|---------------------------------------------------------------------------|
E|---------------------------------------------------------------------------|

e|---------------------------------------------------------------------------|
B|---------------------------------------------------------------------------|
G|-14--12--14--12--14------------------14--12--11----------------------------|
D|---------------------14--14--12--14----------------------------------------|
A|---------------------------------------------------------------------------|
E|---------------------------------------------------------------------------|




************************************

| /   slide up
| \   slide down
| h   hammer-on
| p   pull-off
| ~   vibrato
| +   harmonic
| x   Mute note
| b   Bend
| pb  Pre-bend
| br  Bend release
| pbr Pre-bend release
| brb Bend release bend

************************************
Tap to rate this tab
# A B C D E F G H I J K L M N O P Q R S T U V W X Y Z