Song name
# A B C D E F G H I J K L M N O P Q R S T U V W X Y Z

Ace Of Base - Sign tab

The rest of the song has already been tabs correctly on this site.
[Intro]
|----------------------|
|8-6-8-6-11-8-68-------|      x7
|----------------------|
|----------------------|
|----------------------|
|----------------------|


|--------11--10--8----10-|
|8-6-8-6-----------------|
|------------------------|
|------------------------|
|------------------------|
|------------------------|

[1st Solo]
|----------------------|
|8-6-8-6-11-8-68-------|      x3
|----------------------|
|----------------------|
|----------------------|
|----------------------|

(this part is not exactly right, but works if you dont have the effects)

|--------11--10--8----10-|
|8-6-8-6-----------------|
|------------------------|
|------------------------|
|------------------------|
|------------------------|


[2nd Solo]
|----------------------|
|8-6-8-6-11-8-68-------|      x8
|----------------------|
|----------------------|
|----------------------|
|----------------------|

Much Love
~Odd Ball
Tap to rate this tab
# A B C D E F G H I J K L M N O P Q R S T U V W X Y Z