Song name
# A B C D E F G H I J K L M N O P Q R S T U V W X Y Z

Ace - How Long tab

-------------------------------------------------------------------------------
                             HOW LONG - Ace
-------------------------------------------------------------------------------
Tabbed by: Phil Davis
E-mail: phil.davis@dsl.pipex.com

Tuning: Standard

Another one that has been on my to-do list for a while, and cannot find it here on UG.

Superb solo from the 1974 hit by Ace, 'How Long'.

I have also uploaded an MP3 of me playing the solo, to help with timing.

As ever any comments, good or bad, are most welcome.

e|-------------|---------------------------|-----8-------------------------------|
B|-------------|-----6-------------------6-|-----8-------------------------------|
G|--8----------|-7b8---br7---5-----5-7/8---|-7b8---br7-5---5-/----10b12-10-8---8-|
D|--8-10-p8----|-----------8---5-8---------|-------------8-------------------8---|
A|----------10-|---------------------------|-------------------------------------|
E|-------------|---------------------------|-------------------------------------|

e|---------------------|---------------------|---------------------|---------------------|
B|---------------------|---------------------|---------------------|---------------------|
G|-10b12br10p8----10-8-|-10b12br10p8----10-8-|-10b12br10p8----10-8-|-10b12br10p8----10-8-|
D|-------------10------|-------------10------|-------------10------|-------------10------|
A|---------------------|---------------------|---------------------|---------------------|
E|---------------------|---------------------|---------------------|---------------------|

e|---------------------|------------------------------------------------------|
B|---------------------|-------11--11-----------------------------------------|
G|-10b12br10p8----10-8-|-10b12--------br10-8------------------------8---------|
D|-------------10------|---------------------10-8--------------10-8---10-8-10-|
A|---------------------|---------------------------10\8-6-8/10----------------|
E|---------------------|------------------------------------------------------|

e|--------------------------8--------|
B|-----------------------------------|
G|-8-10b12br10p8----8h10b12---br10-8-|
D|---------------10------------------|
A|-----------------------------------|
E|-----------------------------------|

************************************

| /   slide up
| \   slide down
| h   hammer-on
| p   pull-off
| b   Bend
| br  Bend release

************************************
Tap to rate this tab
# A B C D E F G H I J K L M N O P Q R S T U V W X Y Z