Song name
# A B C D E F G H I J K L M N O P Q R S T U V W X Y Z

Acero Liquido - Decepcion tab

Help us improve GuitareTab! Take a short survey!
-------------------------------------------------------------------------------
			     Decepcion - Acero Liquido
-------------------------------------------------------------------------------
Album: guerrero de luz
Tabbed by: Japunk
Email: Interpol.0102@gmail.com
Tuning: standard
website: www.aceroliquido.com

this is one of my firsts tabs, i guess this is correct, any comments, suggestions email 
at: interpol@gmail.com

esta es una de mis primeras tablaturas, creo q esta correcta, cualquier cosa mandenme un 
a interpol.0102@gmail.com

Guitar intro (arpeggio) 0:49

e|---------------------------------------------------------------------------|
B|---------------------------------------------------------------------------|
G|---------------------------------------------------------------------------|
D|-----7-7-----7--------5-----5-------3-----3-----3-----5-----7--------------|
A|---7-------7------5-5-----5-------3-----3-----3-----5-----7----------------|
E|-5-------5------3-------3-----1-1-----1-----1-----3-----5------------------|

e|---------------------------------------------------------------------------|
B|---------------------------------------------------------------------------|
G|---------------------------------------------------------------------------|
D|-----7-7-----7--------5-----5-------3-----3--3-----5-----7-----------------|
A|---7-------7------5-5-----5-------3-----3----3-----5-----7-----------------|
E|-5-------5------3-------3-----1-1-----1------1-----3-----5-----------------|

BRIDGE AND VERSE:

e|---------------------------------------------------------------------------|
B|---------------------------------------------------------------------------|
G|---------------------------------------------------------------------------|
D|-7-x-7-x-7-x-5-x-5-x-5-x-3-x-3-x-3-x-3-x-5-x-7-----------------------------|
A|-7-x-7-x-7-x-5-x-5-x-5-x-3-x-3-x-3-x-3-x-5-x-7-----------------------------|
E|-5-x-5-x-5-x-3-x-3-x-3-x-1-x-1-x-1-x-1-x-3-x-5-----------------------------|

no entiendo porque
no entiendo porque se fue
si de dedique todo mi amor
y todo mi ser

me estas hiriendo en el fondo
de mi corazon
me estoy ahogando en tinieblas
ahogandome en ti

yo no se lo que paso
lo que fue un gran amor
resulto ser un adios
que jamas tuvo explicacion

RIFF:

e|---------------------------------------------------------------------------|
B|---------------------------------------------------------------------------|
G|-------------------------------------------------------------}-------------|
D|-------------------------------------------------------------}<--x2--------|
A|-----7-5-7---------7-5-7---------3-1-3-4-4-5-5--5-7-5--4-3---}-------------|
E|-5-5-------5-5-5-5-------5-5-1-1-----------------------------}-------------|

me estas hiriendo en el fondo de mi corazon
me estoy ahogando en tinieblas
ahogandome en ti

no se si fue interes o una maldita obsesion

----------REPEAT THE VERSE---------------

maldita obsesion!
maldita decepcion!

OUTRO:!

e|---------------------------------------------------------------------------|
B|---------------------------------------------------------------------------|
G|---------------------------------------------------------------------------|
D|-----7-7-----7--------5-----5-------3-----3-----3-----5-----7--------------|
A|---7-------7------5-5-----5-------3-----3-----3-----5-----7----------------|
E|-5-------5------3-------3-----1-1-----1-----1-----3-----5------------------|

Uh uh!

e|---------------------------------------------------------------------------|
B|---------------------------------------------------------------------------|
G|---------------------------------------------------------------------------|
D|-----7-7-----7--------5-----5-------3-----3-----3-----5-----7--------------|
A|---7-------7------5-5-----5-------3-----3-----3-----5-----7----------------|
E|-5-------5------3-------3-----1-1-----1-----1-----3-----5------------------|


| /  slide up
| \  slide down
| h  hammer-on
| p  pull-off
| ~  vibrato
| +  harmonic
| x  Mute note
===============================================================================
Related for Decepcion tab