Song name
# A B C D E F G H I J K L M N O P Q R S T U V W X Y Z

Acey Slade And The Dark Party - She Brings Down The Moon tab

-------------------------------------------------------------------------------
             SHE BRINGS DOWN THE MOON - Acey Slade and the Dark Party
-------------------------------------------------------------------------------
Tabbed by: ironmanben
Email: bentrooper@gmail.com

Tuning: e B G D A E

verse part 1:
(guitar 1 only)
e|-----|-----------------------------------------------------------------|
B|-x-x-|-x-x-x-x---x-x-x---x-x-x---x-x-x---x-x-x---x-x-x---x-x-x---x-x-x-|
G|-x-x-|-x-x-x-x---x-x-x---x-x-x---x-x-x---x-x-x---x-x-x---x-x-x---x-x-x-|
D|-x-x-|-x-x-x-x---x-x-x---x-x-x---x-x-x---x-x-x---x-x-x---x-x-x---x-x-x-|
A|-----|-----------------------------------------------------------------|
E|-----|-----------------------------------------------------------------|
  ^1st time only
         ^Guitar 2 plays some scratching over this.


verse part 2:
e|-----------------------------------------------------------------|
B|-x-x-x-x---x-x-x---x-x-x---x-x-x---x-x-x---x-x-x---x-x-x---x-x-x-|
G|-x-x-x-x---x-x-x---x-x-x---x-x-x---x-x-x---x-x-x---x-x-x---x-x-x-|
D|-x-x-x-x---x-x-x---x-x-x---x-x-x---x-x-x---x-x-x---x-x-x---x-x-x-|
A|-----------------------------------------------------------------|
E|-----------------------------------------------------------------|
-|                                                                 |
e|-----------------------------------------------------------------|
B|-----------------------------------------------------------------|
G|-4---------(4)-4-2---------(2)-2---------------------------------|
D|-4---------(4)-4-2---------(2)-2-2-----------(2)-2------------(2)|
A|-2---------(2)-2-0---------(0)-0-2-----------(2)-2------------(2)|
E|---------------------------------0-----------(0)-0------------(0)|

chorus:
e|-----------------------------------------------------------------|
B|-----------------------------------------------------------------|
G|-4-4-4-4-4-4-4-4-2-2-2-2-2-2-2-2-7-7-7-7-7-7-7-7-7-7-7-7-7-7-7-7-|
D|-4-4-4-4-4-4-4-4-2-2-2-2-2-2-2-2-7-7-7-7-7-7-7-7-7-7-7-7-7-7-7-7-|
A|-2-2-2-2-2-2-2-2-0-0-0-0-0-0-0-0-5-5-5-5-5-5-5-5-5-5-5-5-5-5-5-5-|
E|-----------------------------------------------------------------|
-|                                                                 |
e|-----------------------------------------------------------------|
B|---------------------------------3---3---3---3---3---3---3---3---|
G|-4---4---4---4---2---2---2---2---2---2---2---2---2---2---2---2---|
D|-4---4---4---4---2---2---2---2---0---0---0---0---0---0---0---0---|
A|-2---2---2---2---0---0---0---0-----------------------------------|
E|-----------------------------------------------------------------|


bridge (guitar 1 only): 
e|--------------------------------------------------------------------|
B|--------------------------------------------------------------------|
G|--------------------------------------------------------------------|
D|---------------------------------4-4-4-4----------4-4-4-4-4-4-4-4-4-|
A|-5-5-5-5-5-5-5-5-7-7-7-7-7-7-7-7-2-2-2-2------0h2-2-2-2-2-2-2-2-2-2-|
E|-3-3-3-3-3-3-3-3-5-5-5-5-5-5-5-5-----------0h2----------------------|

bridge outro (guitar 1 only):
e|-------------------------------------------------|
B|-------------------------------------------------|
G|-------------------------------------------------|
D|-------------------------------------------------|
A|-5-5-5-5-5-5-5-5-7-7-7-7-7-7-7-7-----------------|
E|-3-3-3-3-3-3-3-3-5-5-5-5-5-5-5-5-0-----------(0)-|

Order:
intro (synth)
verse part 1 x2
verse part 2 x2
chorus x2
verse part 1 x2
verse part 2 x2
chorus x4
bridge x3
bridge outro x1
chorus x8
outro (synth)

************************************

| /   slide up
| \   slide down
| h   hammer-on
| p   pull-off
| ~   vibrato
| +   harmonic
| x   Mute note
| b   Bend
| pb  Pre-bend
| br  Bend release
| pbr Pre-bend release
| brb Bend release bend

************************************
Tap to rate this tab
# A B C D E F G H I J K L M N O P Q R S T U V W X Y Z