Song name
# A B C D E F G H I J K L M N O P Q R S T U V W X Y Z

Acheron - One With Darkness tab


/--------------------------------------------------------------------------
/ The following is the author's own interpretation of the song, to be used/
/ for private use and studying only                                       /
/--------------------------------------------------------------------------

                       Acheron:  One With Darkness
                    from album: Rites of the Black Mass

       Transcribed by: Miikka Lyytik„inen(miikka.lyytikainen@clarinet.fi)


  Here is the whole song, except solos, which I haven't had time to
  transcribe(and no skills also:) Any comments or addons(like solos),
  please email me...

    Intro/Chorus           Verse I
E-||-------------------| |---------------------------||
B-||-------------------| |---------------------------||
G-||-------------------| |---------------------------||
D-||-----4-----3-------| |-------3--------4---4-5----||
A-||--2--2--2--1--2----| |--3----1-2----2-2---2-3-3--||
E-||--0-----0-----0----| |--1------0----0---------1--||
                                                                           
   
     Bridge                                                                
         
E-||-------------------------------------------||
B-||-------------------------------------------||
G-||-------------------------------------------||
D-||------------------2------------------------||
A-||---3-4-3------3-4---------3-4-3-------3----||
E-||-1-------4---1------4---1-------4---1---0--||
                                                                           
   
     Verse II                                                              
           
E-||-----------------------------------------------||
B-||-----------------------------------------------||
G-||-----------------------------------------------||
D-||----------------------------------------4------||
A-||-4444-4444---4-5-3-4-5--4444-4444---4-5-2-4-5--||
E-||-2222-2222---2-3-1-2-3--2222-2222---2-3---2-3--||
                                                                           
   
    How To Play The Song: 
             |
    Intro x4  times
    Verse1 x2 -"-
    Chorus x4 -"- (intro & chorus same riffs)
    Verse1 x2 -"-
    Chorus x4 -"-
    Bridge x2
    Solo1 (with bridge riff on the back)
    Verse2 x2 without lyrics
    Verse2 x2 with lyrics
    Solo2 (with verse2 riff on the back)
    Bridge x2  and the fade...
Tap to rate this tab
 
# A B C D E F G H I J K L M N O P Q R S T U V W X Y Z