Song name
# A B C D E F G H I J K L M N O P Q R S T U V W X Y Z

Acid Bath - Bleed Me An Ocean tab

Artist- Acid Bath
Song - Bleed me an ocean
Tuning - Drop D
Tabbed by Kainofmich


Intro & 1st Verse:  ("Let the blackness roll....")
E|----------------------------------------------------|
B|----------------------------------------------------|
G|---------------3--3---------------5-----------------|
D|--5--5--5---3--3--3---3--1--1--1--5--3/4--3--3/4--3-|
A|--5--5--5---3--1--1---3--1--1--1--3--3/4--3--3/4--3-|
D|--5--5--5---3---------3--1--1--1-----3/4--3--3/4--3-|

Rhy. Fill 1:  "you bleed so easy"
E|----------------------------------|
B|----------------------------------|
G|----------------------------------|
D|--1--1--1--1--1--1--1--1--0--0--0-|
A|--1--1--1--1--1--1--1--1--0--0--0-|
D|--1--1--1--1--1--1--1--1--0--0--0-|

Chorus: (Bleed me an ocean.....
E|-------------------------------------------------------------------------|
B|-------------------------------------------------------------------------|
G|-------------------------------------------------------------------------|
D|--5--5--5--5--5--5--0--3--5--5--5--5--5--5--1--1--1--1-----0--0--0-------|
A|--5--5--5--5--5--5--0--3--5--5--5--5--5--5--1--1--1-----1--0--0--0--1--0-|
D|--5--5--5--5--5--5--0--3--5--5--5--5--5--5--1--1--1--------0--0--0-------|
                      pm..

Intro to Verse 2: (rides along your spine....
E|--------------------------------------------------------|
B|--------------------------------------------------------|
G|-----5--3--3--3-----------------------------------------|
D|--5--5--3--3--3--0--0--1/3--3--3--3--0--0--3/4--4--4--4-|
A|--5--3--1--1--1--0--0--1/3--3--3--3--0--0--3/4--4--4--4-|
D|--5--------------0--0--1/3--3--3--3--0--0--3/4--4--4--4-|

 (I was sexless..........
E|----------------------------------------|
B|----------------------------------------|
G|-----5--3--3--3--3-----------5----------|
D|--5--5--3--3--3--3--0--1--1--5--4--4--4-|
A|--5--3--1--1--1--1--0--1--1--3--4--4--4-|
D|--5-----------------0--1--1-----4--4--4-|

Rhy. Fill 2: (all down here from here
E|-------------------|
B|-------------------|
G|-------------------|
D|--5--5--5--4--3--5-|
A|--5--5--5--4--3--5-|
D|--5--5--5--4--3--5-|
             pm..

Rhy. Fill 3:
E|----------------------------------|
B|----------------------------------|
G|----------------------------------|
D|--1--1--1--1--1--1--1--0--0--0--0-|
A|--1--1--1--1--1--1--1--0--0--0--0-|
D|--1--1--1--1--1--1--1--0--0--0--0-|

Chorus: (Just like a raindrop I was born baby to fall..........
E|-------------------------------------------------------------------|
B|-------------------------------------------------------------------|
G|-------------------------------------------------------------------|
D|--5--5--5--5--5--5--0--3--5--5--5--5--5--5--1--1--1--1-----0--0--0-|
A|--5--5--5--5--5--5--0--3--5--5--5--5--5--5--1--1--1-----1--0--0--0-|
D|--5--5--5--5--5--5--0--3--5--5--5--5--5--5--1--1--1--------0--0--0-|
                      pm..

Verse 3: (it was over before you were born
E|-------------------------------------------------------------------------|
B|-------------------------------------------------------------------------|
G|-------------------------------------------------------------------------|
D|--0--0--0--4--4--4--0--0--0--3--3--3--3--0--4--4--4--0--0--0--0--3--2--1-|
A|--0--0--0--4--4--4--0--0--0--3--3--3--3--0--4--4--4--0--0--0--0--3--2--1-|
D|--0--0--0--4--4--4--0--0--0--3--3--3--3--0--4--4--4--0--0--0--0--3--2--1-|
                                                                   pm.....
Outro: (old blossom dies
E|--------------------------------------------------------------------------|
B|--------------------------------------------------------------------------|
G|-----------------8--8-----------------------------------------------------|
D|--6--5--5--5--5--8--8--0--6--5--5--5--5--4--4--4--4--1--1--1--1--1--1--1--|
A|--6--5--5--5--5--6--6--0--6--5--5--5--5--4--4--4--4--1--1--1--1--1--1--1--|
D|--6--5--5--5--5--------0--6--5--5--5--5--4--4--4--4--1--1--1--1--1--1--1--|

E|--------------------------------------------------------------------------|
B|--------------------------------------------------------------------------|
G|--------------------------------------------------------------------------|
D|--0--0--0-----------------------------------------------------------------|
A|--0--0--0-----------------------------------------------------------------|
D|--0--0--0-----------------------------------------------------------------|

Tap to rate this tab
# A B C D E F G H I J K L M N O P Q R S T U V W X Y Z