Song name
# A B C D E F G H I J K L M N O P Q R S T U V W X Y Z

Acid Bath - Scream Of The Butterfly tab

Standard E
Intro
E|------------------------------------------------------------------------|
B|-----------------------------------------------------------------5--77--|(BEND)
 G|--------------5------------7--5-XX--------------------5----------5--7--|
 D|--5-7---5--7-----7---5--7----------7--5-X-5--7--5--7-----7--5--7-------|
 A|-----------------------------------------------------------------------|
 E|-----------------------------------------------------------------------|

Verse
 E|-----------0-------------0---------0----------0-|
 B|-------1-------------1----------1---------1-----|
 G|---2-------------2----------2---------2---------|
 D|------------------------------------------------|
 A|------------------------------------------------|
 E|------------------------------------------------|

Verse continued

 E|-----1--0-----------1--0-----------1--0--------3--1--0--0----|
 B|-----------1--------------1--------------1-----------------1-|
 G|--2--------------2--------------2----------------------------|
 D|-------------------------------------------------------------|
 A|-------------------------------------------------------------|
 E|-------------------------------------------------------------|

Bridge

 E|-----------0----------------------------------------------------------|
 B|-----------1--------0----3----1---0-----------------------------------|
 G|--------2-----2-----2----2----2---2------------0--------------2--0----|
 D|-----2-----------2-----2--------------------2----2------4-----2--2--4-|
 A|--0--------------------------------------2----------2---2-----------2-|
 E|--------------------------------------0--------------------0----------|

Chorus

 E|---------0------------------------------0-----------------|
 B|---------1------------------------------0-----------------|
 G|---------2------------------------------0-----------------|
 D|---------2----2---------0-------------2-------------------|
 A|---0---0----------3---------2-------2-------2-------0-----|
 E|----------------------------------0-------0-------3-----2-|

 Outro

 E|-----------0---------------------------------------0----------------------|
 B|-----------1-------------3-----1----0------------1----------------3--1--0-|
 G|-------2------2--------2-----2----2---------2---------2----------2--2--2--|
 D|-----2---------------2--------------------------------2---------------2---|
 A|---0---------------0---------------------0-------------------------0------|
 E|--------------------------------------------------------------------------|

 Outro (cont.)

 E|-----------------------------------------------------------------|
 B|-----------------------------------------------------------------|
 G|-----------0------------2--0----------------0------------2--0----|
 D|--------2-----2---------------4----------2-----2---------------4-|
 A|-----2-----------2--------------------2-----------2--------------|
 E|--0-----------------0--------------0-----------------0-----------|

  Outro (fill)

 E|-----------------------------------------------------------------------------------0--|
B|-----------------------------------------------------------------------------------0---|
G|-----------------------------------------------------------------------------------0---|
D|--4--3--4--3--4--3---4----4--3--4--3--3--3---4----4--3--4--3--4--3---4-----2-----------|
A|-----------------------5-----------------------5-----------------------5------2--------|
E|---------------------------------------------------------------------------------0-----|
Tap to rate this tab
# A B C D E F G H I J K L M N O P Q R S T U V W X Y Z