Song name
# A B C D E F G H I J K L M N O P Q R S T U V W X Y Z

Acid Bath - Finger Paintings Of The Insane tab

-------------------------------------------------------------------------------
                             Finger Paintings of the Insane - Acid Bath
-------------------------------------------------------------------------------
Tabbed by: Slipdisc
E-mail:

Tuning: Drop C

   00:15
d|--------------------------------------------------|
A|--------------------------------------------------|
F|--------------------------------------------------|
C|-12\------0--(0)----------------------------------|
G|-12\------0--(0)----------------------------------|
C|-12\------0--(0)----------------------------------|

d|--------------------------------------------------|
A|--------------------------------------------------|
F|--------------------------------------------------|
C|--------------------------------------------------|
G|----6--6--6-----66-6--6-----5--5--5-----5--5--5---|
C|-0-----------0-----------8-----------5------------|

d|--------------------------------------------------|
A|--------------------------------------------------|
F|--------------------------------------------------|
C|--------------------------------------------------|
G|----5--5--5-----55-5--5-----5--5--5-----55-5--5---|
C|-0-----------0-----------0-----------0------------|
                                                                                
d|--------------------------------------------------|
A|--------------------------------------------------|
F|--------------------------------------------------|
C|--------------------------------------------------|
G|----6--6--6-----66-6--6-----5--5--5-----5--5--5---|
C|-0-----------0-----------8-----------5------------|

   00:15 Intro Solo
d|-----------------------------------------------------------------------------|
A|-----------------------------------------------------------------------------|
F|-----------------------------------------------------------------------------|
C|-12--(12)----12-12-12-12h13--(13)----12h13-15--13--12--10--13--12--13b---12-|
G|-----------------------------------------------------------------------------|
C|-----------------------------------------------------------------------------|

d|-----13--11--10--10--11--10--10b11--(11)--br10-----10h13p10------------------|
A|-------------------------------------------------11--------11----------------|
F|-/10-------------------------------------------12------------12----(12)------|
C|-----------------------------------------------------------------------------|
G|-----------------------------------------------------------------------------|
C|-----------------------------------------------------------------------------|
 
d|-10h11p10h11p10--------------------------------------------------------------|
A|---------------12p11h12p11---------------------------------------------------|
F|--------------------------13p12h13p12----------------------------------------|
C|-------------------------------------10-(10)--/12----(12)--------------------|
G|-----------------------------------------------------------------------------|
C|-----------------------------------------------------------------------------|


   00:33
d|--------------------------------------------------|
A|--------------------------------------------------|
F|--------------------------------------------------|
C|--0--(0)------------------------------------------|
G|--0--(0)----------------------------------12\-----|
C|--0--(0)----------------------------------12\-----|

d|--------------------------------------------------|
A|--------------------------------------------------|
F|--------------------------------------------------|
C|--------------------------------------------------|
G|----6--6--6-----66-6--6-----5--5--5-----5--5--5---|
C|-0-----------0-----------8-----------5------------|

d|--------------------------------------------------|
A|--------------------------------------------------|
F|--------------------------------------------------|---\
C|--------------------------------------------------|   |
G|----5--5--5-----55-5--5-----5--5--5-----55-5--5---|   |
C|-0-----------0-----------0-----------0------------|   |
                                                        |
d|--------------------------------------------------|   x3
A|--------------------------------------------------|   |
F|--------------------------------------------------|   |
C|--------------------------------------------------|---/
G|----6--6--6-----66-6--6-----5--5--5-----5--5--5---|
C|-0-----------0-----------8-----------5------------|


   01:07
d|--------------------------------------------------------|
A|------------------------------------(Natural Harmonics)-|
F|--------------------------------------------------------|
C|----7--7--7-----8--8--8-----7--7--7--+5+5+5---+5+5+5----|
G|-0--7--7--7--0--8--8--8--0--7--7--7--+5+5+5---+5+5+5----|
C|-0--7--7--7--0--8--8--8--0--7--7--7--+5+5+5---+5+5+5----|

d|--------------------------------------------------------|
A|--------------------------------------------------------|
F|--------------------------------------------------------|
C|----7--7--7-----8--8--8-----7--7--7---------------------|
G|-0--7--7--7--0--8--8--8--0--7--7--7---3----2----1-------|
C|-0--7--7--7--0--8--8--8--0--7--7--7---3----2----1-------|
 

  01:15
d|---|--------------------------------------------------------------------|----|
A|---|.------------------------------------------------------------------.|----|x2 
F|---|--------------------3--4-----------------------------4--5-----------|x3--|
C|---|--6--7-----3--4-----3--4-----------6--7-----3--4-----4--5-----------|----|
G|-0-|.-6--7--0--3--4--0--1--2--3--2--1--6--7--0--3--4--0--2--3--3--2--1-.|----|
C|-0-|--6--7--0--3--4--0--------3--2--1--6--7--0--3--4--0--------3--2--1--|----|


   01:50
d|--------------------------------------------------|
A|--------------------------------------------------|x2
F|--------------------------------------------------|
C|-------------------------------2--------3--4--3---|
G|-4--------7--6-----0--------2--------3------------|
C|----7--6--------2-----6--2--------3---------------|


   01:56 Rhythm
d|--------------------------|
A|---(Guitar 1)-------------|
F|--------------------------|
C|--------------------------|
G|-9--8--6--4--3--1--4--3---|
C|-9--8--6--4--3--1--6--5---|
 |
d|--------------------------|
A|---(Guitar 2)-------------|
F|--------------------------|
C|-9--8--6------------------|
G|----------9--8--6--4--3---|
C|--------------------------|


   02:00
d|------------------------------------------------------------------|
A|------------------------------------------------------------------|x2
F|------------------------------------------------------------------|
C|-----------------0----(0)-----------------------------(0)---------|
G|-1-1-1-1-1-1-1-1-0----(0)--------1-1-1-1-1-1-1-1-0----(0)---------|
C|-1-1-1-1-1-1-1-1-0----(0)--------1-1-1-1-1-1-1-1-0----(0)---------|

d|------------------------------------------------------------------|
A|------------------------------------------------------------------|x2
F|------------------------------------------------------------------|
C|-----------------3-------------------------------3----------------|
G|-4-4-4-4-4-4-4-4-3---3---3---3---4-4-4-4-4-4-4-4-3---3---3---3----|
C|-4-4-4-4-4-4-4-4-3---3---3---3---4-4-4-4-4-4-4-4-3---3---3---3----|

d|------------------------------------------------------------------|
A|------------------------------------------------------------------|
F|------------------------------------------------------------------|
C|-----------------5-------------------------------5----------------|
G|-6-6-6-6-6-6-6-6-5----5555---5---6-6-6-6-6-6-6-6-5----5555---5----|
C|-6-6-6-6-6-6-6-6-5----5555---5---6-6-6-6-6-6-6-6-5----5555---5----|

d|------------------------------------------------------------------|
A|------------------------------------------------------------------|
F|------------------------------------------------------------------|
C|-----------------7------------------------------------------------|
G|-8-8-8-8-8-8-8-8-7--7-7-7-7-7-7-8-8-8-8-8-8-8-8-7-7-7-7-7-7-7-7---|
C|-8-8-8-8-8-8-8-8-7--7-7-7-7-7-7-8-8-8-8-8-8-8-8-7-7-7-7-7-7-7-7---|


 02:22
d|------------------------------------------------------------------|
A|------------------------------------------------------------------|x2
F|------------------------------------------------------------------|
C|-----------------0----(0)-----------------------------(0)---------|
G|-1-1-1-1-1-1-1-1-0----(0)--------1-1-1-1-1-1-1-1-0----(0)---------|
C|-1-1-1-1-1-1-1-1-0----(0)--------1-1-1-1-1-1-1-1-0----(0)---------|

d|------------------------------------------------------------------|
A|------------------------------------------------------------------|x2
F|------------------------------------------------------------------|
C|-----------------3-------------------------------3----------------|
G|-4-4-4-4-4-4-4-4-3---3---3---3---4-4-4-4-4-4-4-4-3---3---3---3----|
C|-4-4-4-4-4-4-4-4-3---3---3---3---4-4-4-4-4-4-4-4-3---3---3---3----|

d|------------------------------------------------------------------|
A|------------------------------------------------------------------|
F|------------------------------------------------------------------|
C|-----------------5-------------------------------5----------------|
G|-6-6-6-6-6-6-6-6-5----5555---5---6-6-6-6-6-6-6-6-5----5555---5----|
C|-6-6-6-6-6-6-6-6-5----5555---5---6-6-6-6-6-6-6-6-5----5555---5----|

d|------------------------------------------------------------------|
A|------------------------------------------------------------------|
F|------------------------------------------------------------------|
C|------------------------------------------------------------------|
G|-8-8-8-8-8-8-8-8-7-7-7-7-7-7-7-7-8-8-8-8-8-8-8-8-7-7-7-7-7-7-7-7--|
C|-8-8-8-8-8-8-8-8-7-7-7-7-7-7-7-7-8-8-8-8-8-8-8-8-7-7-7-7-7-7-7-7--|


   02:44
d|------------------------------------------------------------------|
A|------------------------------------------------------------------|x2
F|------------------------------------------------------------------|
C|-----------------0----(0)-----------------------------(0)---------|
G|-1-1-1-1-1-1-1-1-0----(0)--------1-1-1-1-1-1-1-1-0----(0)---------|
C|-1-1-1-1-1-1-1-1-0----(0)--------1-1-1-1-1-1-1-1-0----(0)---------|

   02:51
d|--------------------------------------------------|
A|--------------------------------------------------|
F|--------------------------------------------------|
C|-------------------------------2--------3--4--3---|
G|-4--------7--6-----0--------2--------3------------|
C|----7--6--------2-----6--2--------3---------------|
 

   02:56 Wah Solo
d|----------------------------------------------------|
A|----------------------------------------------------|
F|----------------------------------------------------|
C|-12-(12)-12---12-----------------12-12-12-12-12-12--|
G|-----------------12----(12)-------------------------|
C|----------------------------------------------------|

d|----------------------------------------------------|
A|----------------------------------------------------|
F|----------------------------------------------------|
C|---------------------15---13---12-------------------|
G|-/13----(13)-----13-----------------12---13---12----|
C|----------------------------------------------------|

d|----------------------------------------------------|
A|----------------------------------------------------|
F|----------------------------------------------------|
C|-12----(12)--------------12----(12)-----------------|
G|-------------12----(12)--------------12----(12)-----|
C|----------------------------------------------------|

d|----------------------------------------------------|
A|----------------------------------------------------|
F|----------------------------------------------------|
C|-13-(13)-15--13--12--13p12----------13--13--12-(12)-|
G|---------------------------13--(13)-----------------|
C|----------------------------------------------------|

d|----------------------------------------------------|
A|----------------------------------------------------|
F|----------------------------------------------------|
C|-12--------(12)-------------------------------------|
G|-12--------(12)-------------------------------------|
C|-12--------(12)-------------------------------------|

   02:56 Rhythm
d|--------------------------------------------------|
A|--------------------------------------------------|
F|--------------------------------------------------|
C|--------------------------------------------------|
G|----5--5--5-----55-5--5-----5--5--5-----55-5--5---|
C|-0-----------0-----------0-----------0------------|
                                                                                
d|--------------------------------------------------|
A|--------------------------------------------------|
F|--------------------------------------------------|
C|--------------------------------------------------|
G|----6--6--6-----66-6--6-----5--5--5-----5--5--5---|
C|-0-----------0-----------8-----------5------------|

d|--------------------------------------------------|
A|--------------------------------------------------|
F|--------------------------------------------------|
C|--------------------------------------------------|
G|----5--5--5-----55-5--5-----5--5--5-----55-5--5---|
C|-0-----------0-----------0-----------0------------|
                                                                                
d|--------------------------------------------------|
A|--------------------------------------------------|
F|--------------------------------------------------|
C|-------------------------8--(8)------5--(5)-------|
G|----6--6--6-----66-6--6--8--(8)--8-8-5--(5)-------|
C|-0-----------0-----------8--(8)--8-8-5--(5)-------|


   03:12
d|--------------------------------------------------|
A|--------------------------------------------------|
F|--------------------------------------------------|
C|--0--(0)------------------------------------------|
G|--0--(0)-----------------------------------12\----|
C|--0--(0)-----------------------------------12\----|
-
d|--------------------------------------------------|
A|--------------------------------------------------|
F|--------------------------------------------------|
C|--------------------------------------------------|
G|----6--6--6-----66-6--6-----5--5--5-----5--5--5---|
C|-0-----------0-----------8-----------5------------|

d|--------------------------------------------------|
A|--------------------------------------------------|
F|--------------------------------------------------|
C|--------------------------------------------------|
G|----5--5--5-----55-5--5-----5--5--5-----55-5--5---|
C|-0-----------0-----------0-----------0------------|
                                                                                
d|--------------------------------------------------|
A|--------------------------------------------------|
F|--------------------------------------------------|
C|--------------------------------------------------|
G|----6--6--6-----66-6--6-----5--5--5-----5--5--5---|
C|-0-----------0-----------8-----------5------------|

d|--------------------------------------------------|
A|--------------------------------------------------|
F|--------------------------------------------------|
C|--------------------------------------------------|
G|----5--5--5-----55-5--5-----5--5--5-----55-5--5---|
C|-0-----------0-----------0-----------0------------|

d|--------------------------------------------------|
A|--------------------------------------------------|
F|--------------------------------------------------|
C|-------------------------8--(8)--5--(5)--0--(0)---|
G|----6--6--6-----66-6--6--8--(8)--5--(5)--0--(0)---|
C|-0-----------0-----------8--(8)--5--(5)--0--(0)---|

d|--------------------------------------------------|
A|--------------------------------------------------|
F|--------------------------------------------------|
C|--------------------------------------------------|
G|----5--5--5-----55-5--5-----5--5--5-----55-5--5---|
C|-0-----------0-----------0-----------0------------|
                                                                                
d|--------------------------------------------------|
A|--------------------------------------------------|
F|--------------------------------------------------|
C|--------------------------------------------------|
G|----6--6--6-----66-6--6-----5--5--5-----5--5--5---|
C|-0-----------0-----------8-----------5------------|

   03:44
d|--------------------------------------------------------|
A|------------------------------------(Natural Harmonics)-|
F|--------------------------------------------------------|
C|----7--7--7-----8--8--8-----7--7--7--+5+5+5---+5+5+5----|
G|-0--7--7--7--0--8--8--8--0--7--7--7--+5+5+5---+5+5+5----|
C|-0--7--7--7--0--8--8--8--0--7--7--7--+5+5+5---+5+5+5----|

d|--------------------------------------------------------|
A|--------------------------------------------------------|
F|--------------------------------------------------------|
C|----7--7--7-----8--8--8-----7--7--7---------------------|
G|-0--7--7--7--0--8--8--8--0--7--7--7---3----2----1-------|
C|-0--7--7--7--0--8--8--8--0--7--7--7---3----2----1-------|


   03:52
d|---|--------------------------------------------------------------------|----|
A|---|.------------------------------------------------------------------.|----|x2 
F|---|--------------------3--4-----------------------------4--5-----------|x3--|
C|---|--6--7-----3--4-----3--4-----------6--7-----3--4-----4--5-----------|----|
G|-0-|.-6--7--0--3--4--0--1--2--3--2--1--6--7--0--3--4--0--2--3--3--2--1-.|----|
C|-0-|--6--7--0--3--4--0--------3--2--1--6--7--0--3--4--0--------3--2--1--|----|


   04:30
d|-----|----------------------------------------------------------------------|
A|-----|.--(Guitar 1)--------------------------------------------------------.|
F|-----|-----------------------3--4-------------------------------------------|--\
C|-----|-----6--7-----3--4-----3--4-------------------------------------------|  |
G|-10\-|.-0--6--7--0--3--4--0--1--2--3--2------------------------------------.|  |
C|-10\-|--0--6--7--0--3--4--0--------3--2-------------------------------------|  |
 |                                                                               |
d|-----|----------------------------------------------------------------------|  x3
A|-----|.--(Guitar 2)--------------------------------------------------------.|  |
F|-----|--------------------------------------------------------4--5----------|  |
C|-----|--------------------------------------6--7-----3--4-----4--5----------|--/
G|-10\-|.----------------------------------0--6--7--0--3--4--0--2--3--3--2---.|
C|-10\-|-----------------------------------0--6--7--0--3--4--0--------3--2----|



For the outro you'd just have to ear-jam dat feedback. I couldn't figure out 
how to write it.


************************************

| /   slide up
| \   slide down
| h   hammer-on
| p   pull-off
| ()  let ring
| ~   vibrato
| +   harmonic
| x   Mute note
| b   Bend
| pb  Pre-bend
| br  Bend release
| pbr Pre-bend release
| brb Bend release bend

************************************
Tap to rate this tab
# A B C D E F G H I J K L M N O P Q R S T U V W X Y Z