Song name
# A B C D E F G H I J K L M N O P Q R S T U V W X Y Z

Acid Bath - New Death Sensation tab

New Death Sensation by Acid Bath
Tabbed by dreadfulsins
Tuning: Standard

Intro (Accoustic Guitar)

 e|---------------------------------------------------------|
 B|---------------------------------------------------------|
 G|---------------------------------------------------------|
 D|-1---1-1h3----3-3---3-3---3--1---1-1h3---3-3---3-3---3---|
 A|---4-------1------1-----1------4-------1-----1-----1-----|
 E|---------------------------------------------------------|

 e|-------------------------------------------------------------|
 B|-------------------------------------------------------------|
 G|-------------------------------------------------------------|
 D|-1---1--8-----8--8-----8--8-----8--6--4--3----3-3---3-3---3--|
 A|---4----9--9--------9--------9-----9--7--2--2-----2-----2----|
 E|-------------------------------------------------------------|

 e|-------------------------------------------------------------|
 B|-------------------------------------------------------------|
 G|-------------------------------------------------------------|
 D|-1---1--8-----8--8-----8--8-----8--9---3--2---2-2---2-2---2--|
 A|---4----9--9--------9--------9-----8---4--3-3-----3-----3----|
 E|-------------------------------------------------------------|

 e|--------------------------------------------------------------|
 B|--------------------------------------------------------------|
 G|--------------------------------------------------------------|
 D|-1---1-1h3----3-3---3-3---3--1---1--8-----8--8-----8--8-----8-|
 A|---4-------1------1-----1------4----9--9--------9--------9----|
 E|--------------------------------------------------------------|

 e|---------------------------------------------------------|
 B|------------1---------1----------------------------------|
 G|--------------0------------------------------------------|
 D|-9---3--2-------2------------1---1-1h3---3-3---3-3---3---|
 A|-8---4--3---------3------------4-------1-----1-----1-----|
 E|---------------------------------------------------------|

 e|----------------------------|
 B|----------------------------|
 G|----------------------------|
 D|-1---1-1h3----3-3---3-3---3-|
 A|---4-------1------1-----1---|
 E|----------------------------|

 e|-------------------------------------------------------------|
 B|-------------------------------------------------------------|
 G|-------------------------------------------------------------|
 D|-1---1--8-----8--8-----8--8-----8--6--4--3----3-3---3-3---3--|
 A|---4----9--9--------9--------9-----9--7--2--2-----2-----2----|
 E|-------------------------------------------------------------|

 e|------------------------------------------------------------|
 B|----------------------------------------------1---------1---|
 G|------------------------------------------------0-----------|
 D|-1---1--8-----8--8-----8--8-----8--9---3--2-------2---------|
 A|---4----9--9--------9--------9-----8---4--3---------3-------|
 E|------------------------------------------------------------|

 e|------------------------------------------|
 B|------------------------------------------|
 G|------------------------------------------|
 D|-1---1-1h3----3-3---3-3---3--1---1-1h3----|
 A|---4-------1------1-----1------4-------1--|
 E|------------------------------------------|


   The rest of the song is played on electric guitar with some wierd chorus effect. It's 
of these two figures played alternately with a keyboard harmony

 e|------------------------------|
 B|------------------------------|
 G|---5------5------5------5-----|
 D|-----5------5------5------5---|
 A|-3-------------3--------------|
 E|--------4-------------4-------|

 e|------------------------------------------------------------|
 B|------------------------------------------------------------|
 G|---5------5------5------5------5------5------5------5-------|
 D|-----5------5------5------5------5------5------5------5-----|
 A|-3------3------3------3------2------2------2------2---------|
 E|------------------------------------------------------------|
Tap to rate this tab
 
# A B C D E F G H I J K L M N O P Q R S T U V W X Y Z