Song name
# A B C D E F G H I J K L M N O P Q R S T U V W X Y Z

Acid Bath - Tranquilized tab

Tranquilized" by Acid Bath.
Tabed by RaveN
Tuning:-all strings down a full step,and drop D to C. 
(CGCFAD)
 Riff.1 (with wah)

 The wah should be applied (treble sound) on each beat marked *.

 d|---------------------------------------------------------|
 A|---------------------------------------------------------|
 F|---------------------------------------------------------|
 C|---------------------------------------------------------|
 G|-------*----------*------*---------*----------*------*---|
 C|-0-00--12--00--00-10--00-3---0-00--12--00--00-10--00-3---|

 d|---------------------------------------------------------|
 A|---------------------------------------------------------|
 F|---------------------------------------------------------|
 C|---------------------------------------------------------|
 G|-------*----------*------*---------*----------*------*---|
 C|-0-00--12--00--00-10--00-3---0-00--12--00--00-10--00-10--|


 Fill.1

 This is played both on its own and with riff.1

 d|---------------------------------------------------------|
 A|---------------------------------------------------------|
 F|-------------12b(14)r12-----------------12b(14)r12-------|
 C|------------------------12--------------------------12---|
 G|---------------------------------------------------------|
 C|-0---------------------------0---------------------------|

 Riff.2

 d|---------------------------------------------------------|
 A|---------------------------------------------------------|
 F|---------------------------------------------------------|
 C|-----7---------------------------7-----------------------|
 G|-----5--------5------------------5---------3-------------|
 C|-0------3--5-----6--5--3------0------3--5-----6--5--3----|

I can't realy do the solo, so fuck off!!!
Tap to rate this tab
# A B C D E F G H I J K L M N O P Q R S T U V W X Y Z