Guitaretab - guitar tabs
Song name
# A B C D E F G H I J K L M N O P Q R S T U V W X Y Z

Acid Bath - Diab Soule tab

Band - Acid Bath
Song - Diab Soule
Tuning  CGCFAD

.= palm mute B= bend /= slide up \=slide down

Intro
|-----------------------------------------|
|-----------------------------------------|
|-----------------------------------------|
|-3/555------3/555------3/555------3/555--|
|-3/555------3/555------3/555------3/555--|
|-3/555------3/555------3/555------3/555B-|
  .          .          .          .
Verse
|-------------------------------------------------------|
|-------------------------------------------------------|
|-------------------------------------------------------|
|-------------------------------------------------------|
|-5-5-5/-8/-10-9-7-9-7-7-5--5-5-5-\-3/-5/-8-7-5-7-5-5-3-|
|-5-5-5/-8/-10-9-7-9-7-7-5-5-5-5-\-3/-5/-8-7-5-7-5-5-3-|

-------------------------------------------------------|
-------------------------------------------------------|
-------------------------------------------------------|
-------------------------------------------------------|
-5-5-5/-8/-10-9-7-9-7-7-5-5-5-5-\-3/-5/-8-7-5-7-5-5-3-|
-5-5-5/-8/-10-9-7-9-7-7-5-5-5-5-\-3/-5/-8-7-5-7-5-5-3-|

Chorus
|----------------------------------------------------------|
|----------------------------------------------------------|
|----------------------------------------------------------|
|-5-5--------------------------5-5-------------------------|
|-5-5-5-\-3/-5/-8-7-5-7-5-5-3--5-5-5-\-3/-5/-8-7-5-7-5-5-3-|
|-5-5--------------------------5-5-------------------------|
[ Tab from: http://www.guitaretab.com/a/acid-bath/84715.html ]
----------------------------------------------------------|
----------------------------------------------------------|
----------------------------------------------------------|
-5-5--------------------------5-5-------------------------|
-5-5-5-\-3/-5/-8-7-5-7-5-5-3--5-5-5-\-3/-5/-8-7-5-7-5-5-3-|
-5-5--------------------------5-5-------------------------|

Mid
|---------------------------------------------------------|
|---------------------------------------------------------|
|---------------------------------------------------------|
|-----5-------------5-------------5-------------5---------|
|-00-05-88\7\66-00-05-88\7\66-00-05-88\7\66-00-05-88\7\66-|
|-00-05-88\7\66-00-05-88\7\66-00-05-88\7\66-00-05-88\7\66-|
  .. .          .. .          .. .          .. .
------------------------------------------------|
------------------------------------------------|
------------------------------------------------|
-----5----------3----------5----------3---------|
-00-05-0-00-00-03-0-00-00-05-0-00-00-03-88\7\66-|
-00-05-0-00-00-03-0-00-00-05-0-00-00-03-88\7\66-|
 .. .  . .. .. .  . .. .. .  . .. .. .

Outro
|--------------------------------------------------------------|
|--------------------------------------------------------------|
|--------------------------------------------------------------|
|-3/5-5555--3/5-5555--3/5-5555--3/5-5555-88888888\777777\66666-|
|-3/5-5555--3/5-5555--3/5-5555--3/5-5555-88888888\777777\66666-|
|-3/5-5555--3/5-5555--3/5-5555--3/5-5555-88888888\777777\66666-|
      ....      ....      ....      ....
Related for Diab Soule tab