Song name
# A B C D E F G H I J K L M N O P Q R S T U V W X Y Z

Acid Drinkers - Satisfaction tab

Satisfaction
(written by The Rolling Stones)


Standard tuning (E A D G H E) disorted

1) Part 1 (Intro & verse)
E:-------------------------|
H:-------------------------|
G:-------------------------|
D:-------------------------|
A:-2-2--2-4-5--5-5-5-4-4---|
E:-0-0---------------------|

2) Part 2
E:-----------------------------------------------------------|
H:-----------------------------------------------------------|
G:-----------------------------------------------------------|
D:-----------------------------------------------------------|
A:-2--2-2-2-2-2-2-2-2-2-2-2-2--7--7-7-7-7-7-7-7-7-7-7-7-7----|
E:-0--0-0-0-0-0-0-0-0-0-0-0-0--5--5-5-5-5-5-5-5-5-5-5-5-5----|
I can get no... satisfaction...

3) Part 3 (bridge)
E:---------------------------------------------------------------------|
H:---------------------------------------------------------------------|
G:---------------------------------------------------------------------|
D:-----2-----------------9-----------------2-----------------7-7-7-----|
A:-----2-----------------9-----------------2-----------------7-7-7-----|
E:-----0-----------------7-----------------0-----------------5-5-5-----|
cause I tried... oh I tried... yes I tried... oh I tried...


4) Part 4 (End)
E:------------------------------------------------|
H:------------------------------------------------|
G:------------------------6~----------------------|
D:------------------------7~----------------------|
A:-----2----4----5--------7~----------------------|
E:------------------------5~----------------------|
I can get noooo...

Song plan: disortion off
Play:
Part1 five times
Part2 two times
Part3 once
Part1 eight times
break ('bout 2 sec)
Part1 2 times
Part2 two times
Part3 once
Part1 eight times
break
Part1 2 times
Part2 two times
Part3 once
Part1 eight times
break
Part4 (end)
Tap to rate this tab
 
# A B C D E F G H I J K L M N O P Q R S T U V W X Y Z