Song name
# A B C D E F G H I J K L M N O P Q R S T U V W X Y Z

Acid Ice - Screem tab

Band: AcId IcE
Song: Screem

~ Let ring


This is on a 6 string

                 Main Riff
|--0-0-----12-12----0-0----13---------------------|
|-------------------------------------------------|
|-------------------------------------------------|
|-------------------------------------------------|
|-------------------------------------------------|
|-------------------------------------------------|

|--0-0-----12-12----0-0----13---------------------|
|-------------------------------------------------|
|-------------------------------------------------|
|-------------------------------------------------|
|-------------------------------------------------|
|-------------------------------------------------|
               7 times
                 then

|--0-0-----12-12----0-0----13~~~~-----------------|
|-------------------------------------------------|
|-------------------------------------------------|
|-------------------------------------------------|
|-------------------------------------------------|
|-------------------------------------------------|

|--0-0-----12-12----0-0----13---------------------|
|-------------------------------------------------|
|-------------------------------------------------|
|-------------------------------------------------|
|-------------------------------------------------|
|-------------------------------------------------|

|--0-0-----12-12----0-0----13---------------------|
|-------------------------------------------------|
|-------------------------------------------------|
|-------------------------------------------------|
|-------------------------------------------------|
|-------------------------------------------------|

  This is played threw the whole song
Tap to rate this tab
# A B C D E F G H I J K L M N O P Q R S T U V W X Y Z