Song name
# A B C D E F G H I J K L M N O P Q R S T U V W X Y Z

Acid Rain - Stolen tab

Help us improve GuitareTab! Take a short survey!
by the way u can't get this song anywhere it's my bands and i was
bored so! It's real simple where not the best band around yet!!!

E----------------------------------------------------------------|
B----------------------------------------------------------------|
G---10---------13---------8---------6----------------------------|
D-8----8---10------10---6----6---4-----4-------------------------|
A----------------------------------------------------------------|
E----------------------------------------------------------------|

thats the intro play about 4 times.

BRIDGE
E---------------------------I-------------------------------------|
B---------------------------I-------------------------------------|
G-10---X-4--/--13--/--10----I--8----X4--/---6----/--8-------------|
D--8--------/--10--/---8----I--6--------/-4---4--/--6-------------|
A---------------------------I-------------------------------------|
E---------------------------I-------------------------------------|
play that 2

The verse is same as intro

Chorus

E----------------------------------------------------------------|
B----------------------------------------------------------------|
G-10--X8--6--x8---13--X8--8---X8---------------------------------|
D--8------4-------10------6---X8---------------------------------|
A----------------------------------------------------------------|
E----------------------------------------------------------------|
repeat a few times!

Any questions comments insults or ways i can improve this song please
let me know e-mail me at joe_wink182@hotmail.com
Related for Stolen tab