Song name
# A B C D E F G H I J K L M N O P Q R S T U V W X Y Z

Acid Rain - The Trance tab

Song:The Trance
Artist: Acid Rain

Play this riff for the intro and in between each chrous and the next verse
e-------------------------------------------------|
b-----0----3----1----0------------0----3----1----0|
g--0----0----0----0------2-0---2----2----2----2---| X2
d----2----2----2----2-----2-----2----2----2----2--|
a-2----2----2----2------0-----0----0----0----0----|
E-------------------------------------------------|

Play this on each verse and chrous
e-0-0--------------------------0-0------------------------|
b-0-0--------------------------0-0------------------------|
g-0-0--------------------------2-2------------------------|
d-2-2-0-0-0-0-0-0-0-0-0-0-0-0--2-2-2-2-2-2-2-2-2-2-2-2-2--|
a-2-2-3-3-3-3-0-1-1-1-1-1-1-1--0-0-3-3-3-3-0-1-1-1-1-1-1--|
E-0-0-0-0-0-0-0-0-0-0-0-0-0-0--0-0-0-0-0-0-0-0-0-0-0-0-0--|

Verse 1
Listen to my trance now
Let the thoughts run through your head now
Because my trance is in your head now
Get up and grove to my trance
While listening to my voice
Go deep inside your mind
And bring back the truth
About the inner light

Chrous
The inner light inside you
The inner light inside you
Wants to be free
To get right back to you

e-------------------------------------------------|
b-----0----3----1----0------------0----3----1----0|
g--0----0----0----0------2-0---2----2----2----2---| X2
d----2----2----2----2-----2-----2----2----2----2--|
a-2----2----2----2------0-----0----0----0----0----|
E-------------------------------------------------|

Verse 2
My trance
Will help you become a better man
My trance
If you listen to it closely
Your greatest memories
Will come from deep inside you
Because their moved by my trance
Moved to the surface 
The surface of your life
So you can understand them

Chrous
The inner light inside you
The inner light inside you
Wants to be free
To get right back to you

e-------------------------------------------------|
b-----0----3----1----0------------0----3----1----0|
g--0----0----0----0------2-0---2----2----2----2---| X2
d----2----2----2----2-----2-----2----2----2----2--|
a-2----2----2----2------0-----0----0----0----0----|
E-------------------------------------------------|

Verse 3
By listening to this trance
You free the stress inside you
So don't let it surprise you
Now is my trance inside you
Getting to your head
But don't let it bother you
Just get on with your grovin
And let my trance take you on in

Chrous
The inner light inside you
The inner light inside you
Wants to be free
To get right back to you
Tap to rate this tab
 
# A B C D E F G H I J K L M N O P Q R S T U V W X Y Z