Song name
# A B C D E F G H I J K L M N O P Q R S T U V W X Y Z

Acid Witch - Into The Cave tab

Intro:
                                      pickslide
|----------------------------------------------|
|----------------------------------------------|
|----------------------------------------------|
|-2--------3-------5--------------x\-----------|
|-2--------3-------5--------------x\-----------|
|-0--------1-------3---3---3---3--x\-----------|

Verse:

|--------------------------------------------|
|--------------------------------------------|
|--------------------------------------------|
|-------2-------5----4/7-------7--9--5-------|
|-------2-------5----4/7-------7--9--5-------|
|--(0)--0--0-0--3----2/5--0-0--5--7--3-------|
           . .            . .

|------------------------------------------|
|------------------------------------------|
|------------------------------------------|
|-----2-------5----4/7-------7-----5-------|
|-----2-------5----4/7-------7-----5-------|
|-----0--0-0--3----2/5--0-0--5-----3-------|
         . .            . .

Variation (It uses this on the others verses, as the beginning before the vocals come in.):


|-----------------------------------|
|-----------------------------------|
|-----------------------------------|
|----------2--4/7-------7--9--5-----|
|----------2--4/7-------7--9--5-----|
|-0-0-0-0--0--2/5--0-0--5--7--3-----|
  . . . .          . .

|-----------------------------------|
|-----------------------------------|
|-----------------------------------|
|----------2--4/7-------7-----5-----|
|----------2--4/7-------7-----5-----|
|-0-0-0-0--0--2/5--0-0--5-----3-----|
  . . . .          . .

Chorus:


|-------------------------------------|
|-------------------------------------|
|-------------------------------------|
|--2-------3/5-------2----------3-----|
|--2-------3/3-------2----2--1--------|
|--0-------1/3-------0----------------|


Interlude:


|--------------------|
|--------------------|
|-2----3/5----2------|
|-2----3/5----2------|
|-0----1/3----0------|
|--------------------|

|------------------------------------|
|------------------------------------|
|------------------4---5---4---7-----|
|--2---------------4---5---4---7-----|
|--2---------------2---3---2---5-----|
|--0--0-0-0-0-0-0--------------------|
      . . . . . .

Riff before solo:


|--------------------------|
|--------------------------|
|-2----3/5----5--7--3------|
|-2----3/5----5--7--3------|
|-0----1/3----3--5--1------|
|--------------------------|

|--------------------------|
|--------------------------|
|-2----3/5----5-----3------|
|-2----3/5----5-----3------|
|-0----1/3----3-----1------|
|--------------------------|


Wish I could tab the solo, but I can't. Sorry.

They are signed to razorback records, I am pretty sure. I couldn't find an official site.
Tap to rate this tab
# A B C D E F G H I J K L M N O P Q R S T U V W X Y Z