Song name
# A B C D E F G H I J K L M N O P Q R S T U V W X Y Z

Acid Witch - The Black Witch tab

Great Song, Great Band. I think this is pretty accurate, other than the tuning. I play 
in C# (Sabbath), but I'm not 100%. (most single notes are palm muted)


Riff A:
-------------------------------------------------------------|
-------------------------------------------------------------|
-2-----2------------------5-----5---------7-----7-\----------|
-2-----2------------0-2---5-----5---------7-----7-\----------|
-0-0-0-0--3-2-0-2-3-----3-3-3-3-3-3-3-5-5-5-5-5-5-\----------|
-------------------------------------------------------------|

Riff B:
-------------------------------------------------------------|
-------------------------------------------------------------|
-7-----7-----7-----7/10- 7-----7-----7-----7\5---------------|
-7-----7-----7-----7/10- 7-----7-----7-----7\5---------------|
-5-5-5-5-5-5-5-5-5-5/ 8--5-5-5-5-5-5-5-5-5-5\3---------------|
-------------------------------------------------------------|

Riff C (played under flanger/tremolo lead)
-------------------------------------------------------------|
-------------------------------------------------------------|
-----2-----------------5--------7----------------------------|
---2---2--5-3-2------5---5----7---7--------------------------|
-0--------------3--3--------5--------------------------------|
-------------------------------------------------------------|

Riff D (mostly palm muted)
-------------------------------------------------------------|
-------------------------------------------------------------|
-------------------------------------------------------------|
-2-2-2-----5-5-5-----7-7-7-8-7-8-7---------------------------|
-2-2-2-22--5-5-5-55--7-7-7-8-7-8-7---------------------------|
-0-0-0-00--3-3-3-33--5-5-5-6-5-6-5---------------------------|

Hope you like it. All riffs a repeated a few times.
Tap to rate this tab
 
# A B C D E F G H I J K L M N O P Q R S T U V W X Y Z