Song name
# A B C D E F G H I J K L M N O P Q R S T U V W X Y Z

Acid - Basic Instinct tab

BASIC INSTINCT
The Acid

Tuning: Standard
Capo: 0

INTRO
e|-----------3--------3-----------------------------|
B|-----------------------------------0--------0-----|
G|--------------------------------------------------|
D|--2--2--2--2--2--2--2--2--------------------------|
A|--------------------------2--2--2--2--2--2--2--2--|
E|--------------------------------------------------|

e|--------------------------------------------------|
B|-----------0--------0--------------0--------0-----|
G|--------------------------------------------------|
D|--------------------------------------------------|
A|--0--0--0--0--0--0--0--0--------------------------|
E|--------------------------3--3--3--3--3--3--3--3--|
X6

VERSE
e|--------------------------------------------------|
B|--------------------------------------------------|
G|--------------------------------------------------|
D|--2--2--2--2--2--2--2--2--------------------------|
A|--------------------------2--2--2--2--2--2--2--2--|
E|--------------------------------------------------|

e|--------------------------------------------------|
B|--------------------------------------------------|
G|--------------------------------------------------|
D|--------------------------------------------------|
A|--0--0--0--0--0--0--0--0--------------------------|
E|--------------------------3--3--3--3--3--3--3--3--|
X4
(on fourth time play last 3 five more times)

INTRO X4

VERSE X4

THEN CHORDS:

e|--------------------------|
B|--------------------------|
G|--1------0------2------0--|
D|--2------0------2------0--|
A|--2------2------0------2--|
E|--0------3------0------3--|
X6

INTRO X4

VERSE X8

these notes are played in the background of VERSE.
e|--15---15--15---17---17--17---14---14--14---12---12--12--|
B|---------------------------------------------------------|
G|---------------------------------------------------------|
D|---------------------------------------------------------|
A|---------------------------------------------------------|
E|---------------------------------------------------------|
Tap to rate this tab
# A B C D E F G H I J K L M N O P Q R S T U V W X Y Z