Song name
# A B C D E F G H I J K L M N O P Q R S T U V W X Y Z

Aclys - Diva tab

Date: Sat, 11 Okt 2003
Title:  "Diva" 
Artist: "Aclys"
Album:  "Liedergeburt"
Transcribed by samir.h (thewrittenwordremains@hotmail.com)


?riff 1?
e|----------------------------------------------|
b|----------------------------------------------|
g|----------------------------------------------|
d|------------------3-2-~-----------------------|
a|--0-2-3-3--2-3-2------------0-2-3-3--2-3-7-5--|
d|--0-2-3-3--2-3-2------------0-2-3-3--2-3-7-5--| 2x
p.m - - - -                   - - - -

e|-------------------------|
b|-------------------------|
g|-------------------------|
d|------------------3-2-~--|
a|--0-2-3-3--2-3-2---------|
d|--0-2-3-3--2-3-2---------|
p.m - - - -                  
 
?riff 2?
e|------------------------------------------------------------|
b|------------------------------------------------------------|
g|-------------------------------------5-4-5-4-5-4-5-4-5-4h5--|
d|--3-3-3--2-2-2--3-3-3--7-7-7--5-5-5-------------------------|
a|--3-3-3--2-2-2--3-3-3--7-7-7--5-5-5-------------------------|
d|--3-3-3--2-2-2--3-3-3--7-7-7--5-5-5-------------------------|  
p.m - - -  - - -  - - -  - - -  - - -                      

e|-----------------------------------------------------------|
b|-----------------------------------------------------------|
g|-------------------------------------5-4-5-4----7/9-7-5-4--|
d|--3-3-3--2-2-2--3-3-3--7-7-7--5-5-5-----------5------------|
a|--3-3-3--2-2-2--3-3-3--7-7-7--5-5-5------------------------|
d|--3-3-3--2-2-2--3-3-3--7-7-7--5-5-5------------------------| 2x
p.m - - -  - - -  - - -  - - -  - - -                     

e|-----------|
b|-----------|
g|-----------|
d|--5--9--7--|
a|--3--7--5--|
d|-----------|

?riff 3?
e|-----------------------------||-----------|
b|-----------------------------||-----------|
g|-----------------------------||-----------|
d|--7-xxxx--8-xxxx--8-10-xxxx--||--5--9--7--|
a|--7-xxxx--8-xxxx--8-10-xxxx--||--3--7--5--|
d|--7-xxxx--8-xxxx--8-10-xxxx--||-----------|
          play  fast     

e|----------------------------||-----------|
b|----------------------------||-----------|
g|----------------------------||-----------|
d|--7-xxxx--8-xxxx--5-7-xxxx--||--5--9--7--|
a|--7-xxxx--8-xxxx--5-7-xxxx--||--3--7--5--|
d|--7-xxxx--8-xxxx--5-7-xxxx--||-----------| 2x
          play  fast     

?riff 4?
e|----0--------0-------------------------|
b|------0--------0-----------------------|
g|--4-----4--5-----5---------------------|
d|--4--------5----------4-5--------------|
a|--2--------3--------0-2-3---7-5-3-2-3--|
d|---------------------------------------| 
p.m.                  - - -   - - - - -

e|----0--------0-------------------------|
b|------0--------0-----------------------|
g|--4-----4--5-----5----------9-7-5-4-5--|
d|--4--------5----------4-5--------------|
a|--2--------3--------0-2-3--------------|
d|---------------------------------------| 2x
p.m.                  - - -   - - - - -

e|---------------------------------|
b|---------------------------------|
g|--4-4-4-4-4-5-5-5-5--------------|
d|--2-2-2-2-2-3-3-3-3--------------|
a|----------------------7-5-3-2-3--|
d|---------------------------------|
p.m.                    - - - - -

e|-------------------------------------|
b|-------------------------------------|
g|--4-4-4-4-4-5-5-5-2-4-5---9-7-5-4-5--|
d|--2-2-2-2-2-3-3-3-0-2-3--------------|
a|-------------------------------------|
d|-------------------------------------|
p.m.                        - - - - -

?riff 3?

?riff 5?
e|-----------------------------------------------------------|
b|-----------------------------------------------------------|
g|-----------------------------------------------------------|
d|-------------------------12----------------10/12--10-9-10--|
a|--10-9--10-9--10-9--10-9----10-9--10-9--10-----------------|
d|-----------------------------------------------------------| 2x


?riff 6?     Im not sure about this?
e|--------------------------------------------------------|
b|--------------------------------------------------------|
g|--------------------------------------------------------|
d|--4/5-xx-5-4-----------------2-4-xx-4-2-----------------|
a|--2/3-xx-3-2--5/7-5-3-3-5-7--0-2-xx-2-0--3/5-3-2-2-3-5--|
d|--------------------------------------------------------| 2x


?riff 2?  then


e|-----------|
b|-----------|
g|-----------|
d|--5--9--7--|
a|--3--7--5--|
d|-----------|

?riff 4?
?riff 3?
?riff 5?


?riff 7?
e|--------------------------------|--------------------------------|
b|--------------------------------|--------------------------------|
g|--------------------------------|--------------------12-10-9-10--|
d|--10-9-----9--10-9--12-10-9-10--|--10-9-----9--10-9--------------|
a|--------10----------------------|--------10----------------------|
d|--------------------------------|--------------------------------|

?riff 8?
e|-------------------------------------|-----------------------------------------|
b|-------------------------------------|-----------------------------------------|
g|-------------------------------------|--------------------------10/12-10-9-10--|
d|--10-9-10----10--10-9-10/12-10-9-10--|--10-9-10----10--10-9-10-----------------|
a|----------12-------------------------|----------12-----------------------------|
d|-------------------------------------|-----------------------------------------|


lyrics: 
Keine Monologe mehr.
Keine Werte, keine Wünsche.
Keine Welt, die dich erträgt.
Keine Welt ohne dich.
Suchen weint aus mir und ist Atem an der Wand
Jeder Grund - bodenlos.

Keine Welt, die dich erträgt.
Du machst mich klein.

Diese Reinheit schlägt schwer an mich,
und treibt Stahl durch mein Gesicht,
füllt mein Gedärm mit Blei.

Keine Welt, die dich erträgt.
Du machst mich klein.

Blindheit schneit auf mich.
Keine Träne, die mein Auge birgt.
Du machst mich klein.
Tap to rate this tab
# A B C D E F G H I J K L M N O P Q R S T U V W X Y Z