Song name
# A B C D E F G H I J K L M N O P Q R S T U V W X Y Z

Acoustic Alchemy - Ballad Of Kay tab

t. See http://www.olga.net/faq/ for more information.                     #
#-----------------------------------------------------------------------------#

From: "Luis Rodriguez" 
Subject: a/acoustic_alchemy/ballad_of_kay.tab
Date: Wed, 15 Sep 1999 19:25:07 PDT


  Date:  Septembre 15, 1999
  From:  larrta@hotmail.com
  Song:  Ballad_For_Kay 
Author:  Acoustic_Alchemy

This is a transcription of the song "Ballad For Kay" from Acoustic Alchemy.  It 
appears at the album "Natural Elements".  It is a simplified version of the work
done by Mikael Larsson.  I had improve it only on the way of how to play it, making
it easier to play.  The original work were harder to play, hope you like this
simplified version which uses some opens strings.
Transcribed by Mikael Larsson (micke_larsson@usa.net)
Arranged by (larrta@hotmail.com)

(1)                                                      (5)
|-0-----0-----|-0-----0-----|-0-----0-----|-0----0------|-------------|
|-----0---0---|-----0---0---|-----4---0---|-----0---4---|-----0---0---|
|-------------|-------------|-------------|-------------|-6-----6-----|
|-------------|---7-------7-|---6-------6-|---6-------6-|---6-------6-|
|-7-9-------9-|-6-----------|-4-----------|---------0---|-------------|
|-------------|-------------|-------------|-7-----------|-4-----------|


(6)            1:st time------------------|2:nd/3:d time
|-------------|-0-----0-----|-0-----0-----|-------------|-0-----0-----|
|-------------|-----0---0---|-----0---0--?|-0-----0-----|-----0---0---|
|-6-----6-----|-------------|-----------1-|-----2---2---|-------------|
|-----7---7---|---7-------7-|---6---------|---0-------0-|---6-------6-|
|-0-7-------7-|-------------|------------?|-------------|-------------|
|-------------|-7-----------|-0-----------|-3-----------|-0-----------|


In measures (6) and (16) could be use an A minor (X 2 2 2 0 X), they're the
same notes structure.

(11)
|-0-----0-----|-0-----0-----|-0-----0-----|-0-----0-----|-------------|
|-----0---0---|-----0---0---|-----4---0---|-----0---4---|-0-----0-----|
|-------------|-------------|-------------|-------------|-------------|
|-------------|---7-------7-|---6-------6-|---6-------6-|-----6---6---|
|-7-9-------9-|-6-----------|-4-----------|---------0---|---7-------7-|
|-------------|-------------|-------------|-7-----------|-4-----------|


(16)                                        C#m            A
|-------------|-------0-----|-0-----0-----|-------4-----|-------5-----|
|-----0-------|-0---0---0---|-----0---0--?|-5---5---5---|-5---5---5---|
|-6-----6-----|-------------|-------------|---6-------6-|---6-------6-|
|---------7---|---7-------7-|---6-------6-|-------------|-------------|
|-0-7-------7-|-------------|------------?|-4-----------|-------------|
|-------------|-7-----------|-0-----------|---------4---|-5-------5---|

(20)
|---0---------|-0-----0-----|
|-9---9---7---|-----0---0---|
|-----------7-|-------------|
|---------0---|---6---------|
|-7-----------|-4-----------|
|-------------|-----------4-| ... remember this is the easy part, after this
                                  it gets trickier as Micke Larrson said before.
				  I hope he adds more on the song.


This is a transcription on the song "Ballad For Kay" from the Acoustic Alchemy album
"Natural Elements". It's a guitar duet with rythm and solo guitar. This transcription
only contains the rythm-guitar section (not complete, sorry). It's in E-major key.
Transcribed by Mikael Larsson (micke_larsson@usa.net).
Arranged by (larrta@hotmail.com)

(micke_larsson@usa.net).
larrta@hotmail.com
Tap to rate this tab
# A B C D E F G H I J K L M N O P Q R S T U V W X Y Z