Song name
# A B C D E F G H I J K L M N O P Q R S T U V W X Y Z

Acoustic Alchemy - Natural Elements tab

|------2--3--2--0--3--0-----3--2--3--2--0--3--0-----3--2--3--2--0--3--0----|
|------------------------3-----------------------3-----------------------3-|
|--------------------------------------------------------------------------|
|--------------------------------------------------------------------------|
|--------------------------------------------------------------------------|
|--------------------------------------------------------------------------|


                            |Part A

|--3--2--3--2--0--3--0-----3--3--5/7--7--5--7/8--7--5--5--3--10/12--10--8--|
|-----------------------3--------------------------------------------------|
|--------------------------------------------------------------------------|
|--------------------------------------------------------------------------|
|--------------------------------------------------------------------------|
|--------------------------------------------------------------------------|


|--8--7--5/7--5--5-------3--0-----2-------------5--5--2--2--3--0-----------|
|--------------------3--------1-----0--3--1--0-----------------------------|
|--------------------------------------------------------------------------|
|--------------------------------------------------------------------------|
|--------------------------------------------------------------------------|
|--------------------------------------------------------------------------|


Repeat this whole thing about twice. I'm only 15, and my ear's not perfect. If you've 
any questions, please E-mail me at hudaw@live.com
Tap to rate this tab
# A B C D E F G H I J K L M N O P Q R S T U V W X Y Z