Song name
# A B C D E F G H I J K L M N O P Q R S T U V W X Y Z

Acoustic Alchemy - Jamaican Heartbeat tab



This is Jamaican Heartbeat my Version.hehe


Guitarl
---5---------5----------5--------5-------5---------------------------------]
---5-(4x)----5--(4x)----5-(4x)---5-(2x)--5--(2x)---------------------------]
---5---------5----------5--------5-------5---------------------------------]
-7---------6----------5--------3--------2----------------------------------]
---------------------------------------------------------------------------]
---------------------------------------------------------------------------]

Guitarll
---------8-7----------------------------------------7-7----------------|
--------------8----------12-12-10-----------------------3-1-1-0--------|
--7/9-----------7-7/9--9-----------9--7-----5--7/9---------------------|
-----------------------------------------7-----------------------------|
-----------------------------------------------------------------------|
-----------------------------------------------------------------------|

-------------------------8--7-8--10-----------------10-10---------------|
---6-5------------------------------10-----10-12-12-------12-12--10-----|
--------5-------------------------------9-------------------------------|
-----------5-5/7---7/9--------------------------------------------------|
------------------------------------------------------------------------|
------------------------------------------------------------------------|


---------------------------------------------------------------|
-10-10-10------------------6-5---------------------------------|
-----------9--7--5-----9-------5-------------------------------|(2x)
--------------------7------------5-5/7-------------------------|
---------------------------------------------------------------|
---------------------------------------------------------------|




Thank you.....

/=Slide
Tap to rate this tab
# A B C D E F G H I J K L M N O P Q R S T U V W X Y Z