Guitaretab - guitar tabs
Song name
# A B C D E F G H I J K L M N O P Q R S T U V W X Y Z

Acoustic Alchemy - Playing For Time tab

Acoustic Alchemy- Playing for Time

-I've been tabbing for quite some time now (maybe three years or so) but I've never
really submitted any of them in the net. But, after seeing the tabs on this song, I
couldn't help but submit my tab.  I give a thumb's up to the two who've submitted
before me, but I feel a bit skeptical about some parts of their tabs (mind your scales!
= )). (^_^) I hope you find my VERY first submitted tab fine! Enjoy dudes!

Oh, and if you want the rhythm for this, check the other tab. Jae K. did a
very cool job tabbing it out!

Intro:
======
e|-0-|
B|-0-|
G|-0-|
D|-0-|
A|-0-|
E|-0-|
*Down strum.

1st part: 00:02 - 00:41.
=========
e|---7~---9----------------------|
B|----------10~-----8~---7-5~-3~-|
G|----------------7--------------|
D|-------------------------------|
A|-------------------------------|
E|-------------------------------|

e|---7~---9---------------------------|
B|----------10~-----8~---7-5~-3~-2~-0-|
G|----------------7-------------------|
D|------------------------------------|
A|------------------------------------|
E|------------------------------------|

e|7~---9-----------------------------1-3/7~---12-9------10-------------|
B|-------10~-----8~---7-5~-3~---2-3-4--------------12~-----8~----------|
G|-------------7--------------4----------------------------------------|
D|---------------------------------------------------------------------|
A|---------------------------------------------------------------------|
E|---------------------------------------------------------------------|

----------------|
-7-5~-3~-2-3p2--|
---------------4|
----------------|
----------------|
----------------|

2nd part: 00:41 - 01:24.
=========
*I just placed the transition of broken chords here. I'm too lazy to type the strumming.

e|-7-10-9--5------7-4-2|--7-10--9--5----7-4-2-0-|
b|-8-11-10-6------8-5-3|--8-11--10-6----8-5-3-2-|
g|-7-10-9--5------7-4-2|--7-10--9--5----7-4-2-0-|
d|---------------------|------------------------|
a|---------------------|------------------------|
E|---------------------|------------------------|
*Repeat twice.


e|-----------5-5-----------------------------------------------4------|
B|-7-7~-7-7----------------7-7-----------3-3------------2-2-2h4-------|
G|----------------7-7~-7-7-----0-4-4~-4-4-----2-2~-2-2----------------|
D|--------------------------------------------------------------------|
A|--------------------------------------------------------------------|
E|--------------------------------------------------------------------|

e|-----------5-5--------------------------------------------------------------|
B|-7-7~-7-7----------------7-7-----------3-3------------2-2-2.........--------|
G|----------------7-7~-7-7-----0-4-4~-4-4-----2-2~-2-2--2-2-2.........--------|
D|----------------------------------------------------------------------------|
B|----------------------------------------------------------------------------|
E|----------------------------------------------------------------------------|

3rd Part: 01:25 - 02:37.
=========
e|7~---9-----------------------------1-3/7~---12-9------10-------------|
B|-------10~-----8~---7-5~-3~---2-3-4--------------12~-----8~---7-5-3--|
G|-------------7--------------4----------------------------------------|
D|---------------------------------------------------------------------|
A|---------------------------------------------------------------------|
E|---------------------------------------------------------------------|

e|----------------|
B|-7-5~-3~-2-3p2--|
G|---------------4|
D|----------------|
A|----------------|
E|----------------|

e|-7-10-9--5------7-4-2|--7-10--9--5----7-4-2-0-|
b|-8-11-10-6------8-5-3|--8-11--10-6----8-5-3-2-|
g|-7-10-9--5------7-4-2|--7-10--9--5----7-4-2-0-|
d|---------------------|------------------------|
a|---------------------|------------------------|
E|---------------------|------------------------|
[ Tab from: http://www.guitaretab.com/a/acoustic-alchemy/35864.html ]
e|-----------5-5-----------------------------------------------4------|
B|-7-7~-7-7----------------7-7-----------3-3------------2-2-2h4-------|
G|----------------7-7~-7-7-----0-4-4~-4-4-----2-2~-2-2----------------|
D|--------------------------------------------------------------------|
A|--------------------------------------------------------------------|
E|--------------------------------------------------------------------|

e|-----------5-5------------------------------------------------------|
B|-7-7~-7-7----------------7-7-----------3-3------------2-2-2---------|
G|----------------7-7~-7-7-----0-4-4~-4-4-----2-2~-2-2--2-2-2---------|
D|--------------------------------------------------------------------|
B|--------------------------------------------------------------------|
E|--------------------------------------------------------------------|

e|-----------5-5-----------------------------------------------4------|
B|-7-7~-7-7----------------7-7-----------3-3------------2-2-2h4-------|
G|----------------7-7~-7-7-----0-4-4~-4-4-----2-2~-2-2----------------|
D|--------------------------------------------------------------------|
A|--------------------------------------------------------------------|
E|--------------------------------------------------------------------|

e|-----------7-5--------------------------------------------------------------|
B|-7-7~-7-7----------------7-7-----------3-3------------2-2-2.........--------|
G|----------------7-7~-7-7-----0-4-4~-4-4-----2-2~-2-2--2-2-2.........--------|
D|----------------------------------------------------------------------------|
B|----------------------------------------------------------------------------|
E|----------------------------------------------------------------------------|

4th part: 02:38 - 3:22.
=========

e|5-3-2~---------------------------------------------------------------|
b|--------3p1-3~-0-3-5----------------------3b4r3----------------2-3-4-|
g|---------------------4/6-2-2---2-4--2-4-2-------4-4-2-4--2-4---------|
d|-----------------------------4---------------------------------------|
a|---------------------------------------------------------------------|
E|---------------------------------------------------------------------|

1-3-3/7-7-5---------------|
---------------5/7-5-3----|
-----------------------4~-|
--------------------------|
--------------------------|
--------------------------|

e|---7---7-7~---7-5--3--------5--3--2-------------------------5-7-10--|
b|-----------------------5~-------------3~----------3--3-5-5/7---------|
g|-4---4------4--------------2----------------2-3-4--4-----------------|
d|---------------------------------------------------------------------|
a|---------------------------------------------------------------------|
E|---------------------------------------------------------------------|

12/14-10-12-8-10-12-13-14-13-12-10-8-10~-9----------------------------|
------------------------------------------10-----10/12-10-------------|
----------------------------------------------11-----------11/9--7----|
-------------------------------------------------------------------9--|
----------------------------------------------------------------------|
----------------------------------------------------------------------|

e|----------------------------------1-3-1------------------------------|
b|-5/7-5-3-2--5-3-2-----------2-3-4--------4-2-4-5~-4-5-5/7~-4-5-7-----|
g|-------------------2-4~--0-4-----------------------------------------|
d|---------------------------------------------------------------------|
a|---------------------------------------------------------------------|
E|---------------------------------------------------------------------|

7-7-5-7-7------8/10-10-8-6----------3-5-7-10--6--3------------3-5-7-9--|
---------6/8~--------------6/4-3---5--------8--5--3---0-2/3-5----------|
-----------------------------------------------------------------------|
-----------------------------------------------------------------------|
-----------------------------------------------------------------------|
-----------------------------------------------------------------------|

13-11-13-11-13/15-15-13-11-13/15~-|
----------------------------------|
----------------------------------|
----------------------------------|
----------------------------------|
----------------------------------|

Last Part: 3:22 - 5:51 (fades out)
==========
This is pretty much the same as the previous parts.

That's it!

E-mail at ifyhard2@yahoo.com for comments, suggestions, or whatever, really! = )

-Ifyhard
Related for Playing For Time tab