Guitaretab - guitar tabs
Song name
# A B C D E F G H I J K L M N O P Q R S T U V W X Y Z

Acoustic Alchemy - Kid Stuff tab

Acoustic Alchemy- Kid Stuff

-As compared to my other tabs, I didn't spend much time on this one. But, nevertheless, enjoy!

1st Part:
=========
e|---6~-----8/10--8-8p6------------------------------------------------|
B|-8----8-8------------8-8/9-9/10-6-6~--6-7-8--------------------------|
G|-------------------------------------------7-7--5-7------------------|
D|---------------------------------------------------------------------|
A|---------------------------------------------------------------------|
E|---------------------------------------------------------------------|

e|----6~6-----8/10--8-8p6-8-10-8~---13--11-10--8/6--------------------|
B|-7/8----8-8----------------------------------------------------------|
G|---------------------------------------------------------------------|
D|---------------------------------------------------------------------|
A|---------------------------------------------------------------------|
E|---------------------------------------------------------------------|

2nd part:
=========
e|----6~----6------------8---------------------------------------------|
B|-7/8--7/8-----8-10-11--9/10-6-6~--6-7-8----------------------------|
G|-----------7------------------------------7-7--5-7-------------------|
D|---------------------------------------------------------------------|
A|---------------------------------------------------------------------|
E|---------------------------------------------------------------------|
[ Tab from: http://www.guitaretab.com/a/acoustic-alchemy/62412.html ]
e|-10----8---7--5--3--1-------------------3--6-------------------------|
B|---11---10--8--6--3------------3--4--6-------------------------------|
G|----------------------2--3--5----------------------------------------|
D|---------------------------------------------------------------------|
A|---------------------------------------------------------------------|
E|---------------------------------------------------------------------|

Variations:
===========
e|-----6~6-----  -----13-11--10--8/6--   -----------------------------|
B|-7/8----8-8--  -12-------------------   -6-7-8-----------------------|
G|-------------  ----------------------   --------7-7-5h7-10-7---------|
D|-------------  ----------------------   -----------------------------|
A|-------------  ----------------------   -----------------------------|
E|-------------  ----------------------   -----------------------------|

e|---6-6----8/10-8-6p5-6-8---------------------------------------------|
B|-8----8-8-------------------6----------------------------------------|
G|---------------------------------------------------------------------|
D|---------------------------------------------------------------------|
A|---------------------------------------------------------------------|
E|---------------------------------------------------------------------|

3rd part:
=========
e|--------------13/---------------13/------------12-------10-----------|
B|-----------14----------------14------------------12------------------|
G|-7-7-7-7-7--------/7-7-7-7-7---------7-8-8h9-9-------6/8--6--4--2----|
D|---------------------------------------------------------------------|
A|---------------------------------------------------------------------|
E|---------------------------------------------------------------------|

e|--------------13/---------------13/------------12-------10-8--6-4----|
B|-----------14----------------14------------------12-------------------|
G|-7-7-7-7-7--------/7-7-7-7-7---------7-8-8h9-9-------6/8---6-4---2-2-|
D|----------------------------------------------------------------------|
A|----------------------------------------------------------------------|
E|----------------------------------------------------------------------|

That's it!

E-mail me at ifyhard2@yahoo.com for comments, suggestions, or whatever, really! = )

-Ifyhard
Related for Kid Stuff tab