Song name
# A B C D E F G H I J K L M N O P Q R S T U V W X Y Z

Acoustic Alchemy - No Messin tab

-------------------------------------------------------------------------------
			     No Messin' - Acoustic Alchemy
-------------------------------------------------------------------------------
Tabbed by: Alex Simmons
Email: sovietcracker@yahoo.com

Tuning: standard

e|---------------------------------------------------------------------------|
B|---------------------------------------------------------------------------|
G|---------------------------------------------------------------------------|
D|---------------------------------------------------------------------------|
A|------------7-9~--7----------------------------7-7h9~----------------------|
E|-2---7h9-------------9-7h9p7----5--2------7h9------------------------------|

e|---------------------------------------------------------------------------|
B|---------------------------------------------------------------------------|
G|----\11--------------------------------------------------------------------|
D|-------------9p8-7h8-9-----------------------------------------------------|
A|---------9-----------------------------------------------------------------|
E|---------------------------------------------------------------------------|
Tap to rate this tab
# A B C D E F G H I J K L M N O P Q R S T U V W X Y Z