Song name
# A B C D E F G H I J K L M N O P Q R S T U V W X Y Z

Acoustic Reserve - Tuesday Morning tab

----------------------------------------------------------------------------
			 Acoustic Reserve - Tuesday Morning
----------------------------------------------------------------------------
Acoustic Reserve has some great songs. I found them on some music sites but
no tabs. I used their cd and tabbed this out. I think for the most part it
is correct, but I know that there are a lot of fills they do. Just play with
it and it sounds right. They hammer almost every note in this song I think.
Good luck, this song a lot of fun to play!

Tabbed by: Tom

Capo on 3rd Fret

Tuning: standard
   

Intro/Verse

    F    

e|--1---------------------------------0------------------------------------|
B|--1----1----------------------------1------------------------------------|
G|--2------2---------------1----------0------------------------------------|
D|--3--------3-------------0----------2--------0--0-2-0--------------------|
A|--0----------------------2-----------------------------------------------|
E|--1----------------0-----0-----------------------------------------------|

Prechorus

     Am                 G       C/F        

e|---0------0------------3------0----------0--0--0---0--0---3-----------0--|
B|---1------1------x-----1------1----------1--1--1---1--1---1-----------1--|
G|---1------1------x-----0------0----(X3)--0--0--0---0--0---0-----------0--|
D|---2------2------x-----0------0----------2--0--0---x--x------0-2-0-2-----|
A|---0-------------------2------3-------------2--3---3------2-----------2--|
E|---0-------------------3------1----------------1---1------3-----------3--|
    Is anything typical...                 16 degrees from...
 
Chorus
 
    F      Am      G
e|--1------0-------3---------------0--0--0---0--0---3--------------0-------|
B|--1------1-------3---------------1--1--1---1--1---1--------------1-------|
G|--2------1-------0------(x3)-----0--0--0---0--0---0--------------0-------|
D|--3------2-------0---------------2--0--0---x--x--------0-2-0-2-----------|
A|--0--------------2------------------2--3---3------2--------------2-------|
E|--1--------------3---------------------1---1------3--------------3-------|

                    I could be...  16 degrees from...

| /  slide up
| \  slide down
| h  hammer-on
| p  pull-off
| ~  vibrato
| +  harmonic
| x  Mute note
===============================================================================
Tap to rate this tab
 
# A B C D E F G H I J K L M N O P Q R S T U V W X Y Z