Song name
# A B C D E F G H I J K L M N O P Q R S T U V W X Y Z

Acres - Walking Next To You tab

Walking Next To You
Acres
For The Lost And Found


Standard Tuning
Capo 3rd Fret


Intro
     C                        Am
E|------------0-----------|------------0-----------|
B|--1-1-1-1-----1--1-1----|--1-1-1-1-----1--1-1----|
G|--0-0-0-0--------0-0----|--2-2-2-2--------2-2----|  x2
D|--2-2-2-0h2------2-0h2--|--2-2-2-0h2------2-0h2--|
A|--3-3-3-3--------3-3----|--0-0-0-0--------0-0----|
E|------------------------|------------------------|


Verse
     C                        Am
E|------------0-----------|------------0-----------|
B|--1-1-1-1-----1--1-1----|--1-1-1-1-----1--1-1----|
G|--0-0-0-0--------0-0----|--2-2-2-2--------2-2----|  x2
D|--2-2-2-0h2------2-0h2--|--2-2-2-0h2------2-0h2--|
A|--3-3-3-3--------3-3----|--0-0-0-0--------0-0----|
E|------------------------|------------------------|

     G         Dsus2/F#      C         Am
E|-----------------------|-------------------------|
B|---3-3-3-3---3-3-3-3---|---1-1-1-1---1-1-1-1-----|
G|---0-0-0-0---2-2-2-2---|---0-0-0-0---2-2-2-2-----|
D|---0-0-0-0---0-0-0-0---|---2-2-2-2---2-2-2-2-----|
A|---2-2-2-2---x-x-x-x---|---3-3-3-3---0-0-0-0-----|
E|---3-3-3-3---2-2-2-2---|-------------------------|

     C                        Am
E|------------0-----------|------------0-----------|
B|--1-1-1-1-----1--1-1----|--1-1-1-1-----1--1-1----|
G|--0-0-0-0--------0-0----|--2-2-2-2--------2-2----|  x2
D|--2-2-2-0h2------2-0h2--|--2-2-2-0h2------2-0h2--|
A|--3-3-3-3--------3-3----|--0-0-0-0--------0-0----|
E|------------------------|------------------------|

     G         Dsus2/F#      C         G
E|-----------------------|-------------------------|
B|---3-3-3-3---3-3-3-3---|---1-1-1-1---3-3-3-3-----|
G|---0-0-0-0---2-2-2-2---|---0-0-0-0---0-0-0-0-----|
D|---0-0-0-0---0-0-0-0---|---2-2-2-2---0-0-0-0-----|
A|---2-2-2-2---x-x-x-x---|---3-3-3-3---2-2-2-2-----|
E|---3-3-3-3---2-2-2-2---|-------------3-3-3-3-----|


Chorus
     F                     C
E|---0-0-0-0-0-0-0-0---|---------------------|
B|---1-1-1-1-1-1-1-1---|---1-1-1-1-1-1-1-1---|
G|---2-2-2-2-2-2-2-2---|---0-0-0-0-0-0-0-0---|
D|---3-3-3-3-3-3-3-3---|---2-2-2-2-2-2-2-2---|
A|---------------------|---3-3-3-3-3-3-3-3---|
E|---------------------|---------------------|

     F                     C         G
E|---0-0-0-0-0-0-0-0---|-----------------------|
B|---1-1-1-1-1-1-1-1---|---1-1-1-1---3-3-3-3---|
G|---2-2-2-2-2-2-2-2---|---0-0-0-0---0-0-0-0---|
D|---3-3-3-3-3-3-3-3---|---2-2-2-2---0-0-0-0---|
A|---------------------|---3-3-3-3---2-2-2-2---|
E|---------------------|-------------3-3-3-3---|


     C                     Am        F6
E|---------------------|-------------0-0-0-0---|
B|---1-1-1-1-1-1-1-1---|---1-1-1-1---1-1-1-1---|
G|---0-0-0-0-0-0-0-0---|---2-2-2-2---2-2-2-2---|
D|---2-2-2-2-2-2-2-2---|---2-2-2-2---3-3-3-3---|
A|---3-3-3-3-3-3-3-3---|---0-0-0-0-------------|
E|---------------------|-----------------------|

     G                     F
E|---------------------|---1~~-----------------|
B|---3-3-3-3-3-3-3-3---|---1~~-----------------|
G|---0-0-0-0-0-0-0-0---|---2~~-----------------|
D|---0-0-0-0-0-0-0-0---|---3~~-----------------|
A|---2-2-2-2-2-2-2-2---|---3-------------------|
E|---3-3-3-3-3-3-3-3---|-----------------------|


Break
     C                        Am
E|------------0-------------|------------0-----------|
B|--------------1--1-1------|--1-1-1-1-----1--1-1----|
G|------0----------0-0------|--2-2-2-2--------2-2----|
D|----2---0h2------2-2-0h2--|--2-2-2-0h2------2-0h2--|
A|--3--------------3-3------|--0-0-0-0--------0-0----|
E|--------------------------|------------------------|

     C                        Am
E|------------0-----------|------------0-----------|
B|--1-1-1-1-----1--1-1----|--1-1-1-1-----1--1-1----|
G|--0-0-0-0--------0-0----|--2-2-2-2--------2-2----|
D|--2-2-2-0h2------2-0h2--|--2-2-2-0h2------2-0h2--|
A|--3-3-3-3--------3-3----|--0-0-0-0--------0-0----|
E|------------------------|------------------------|


Bridge
     C                        Am
E|------------0-----------|------------0-----------|
B|--1-1-1-1-----1--1-1----|--1-1-1-1-----1--1-1----|
G|--0-0-0-0--------0-0----|--2-2-2-2--------2-2----|
D|--2-2-2-0h2------2-0h2--|--2-2-2-0h2------2-0h2--|
A|--3-3-3-3--------3-3----|--0-0-0-0--------0-0----|
E|------------------------|------------------------|

     F                   G 
E|---1-1-1-1-1-1-1-1--|-------------------|
B|---1-1-1-1-1-1-1-1--|--3-3-3-3-3-3-3-3--|
G|---2-2-2-2-2-2-2-2--|--0-0-0-0-0-0-0-0--|
D|---3-3-3-3-3-3-3-3--|--0-0-0-0-0-0-0-0--|
A|---3-3-3-3-3-3-3-3--|--2-2-2-2-2-2-2-2--|
E|---1-1-1-1-1-1-1-1--|--3-3-3-3-3-3-3-3--|

     C                   Am
E|--------------------|-------------------|
B|---1-1-1-1-1-1-1-1--|--1-1-1-1-1-1-1-1--|
G|---0-0-0-0-0-0-0-0--|--2-2-2-2-2-2-2-2--|
D|---2-2-2-2-2-2-2-2--|--2-2-2-2-2-2-2-2--|
A|---3-3-3-3-3-3-3-3--|--0-0-0-0-0-0-0-0--|
E|--------------------|-------------------|

     F                   G 
E|---1-1-1-1-1-1-1-1--|-------------------|
B|---1-1-1-1-1-1-1-1--|--3-3-3-3-3-3-3-3--|
G|---2-2-2-2-2-2-2-2--|--0-0-0-0-0-0-0-0--|
D|---3-3-3-3-3-3-3-3--|--0-0-0-0-0-0-0-0--|
A|---3-3-3-3-3-3-3-3--|--2-2-2-2-2-2-2-2--|
E|---1-1-1-1-1-1-1-1--|--3-3-3-3-3-3-3-3--|


Outro
     C                        Am
E|------------0-----------|------------0-----------|
B|--1-1-1-1-----1--1-1----|--1-1-1-1-----1--1-1----|
G|--0-0-0-0--------0-0----|--2-2-2-2--------2-2----|  x6
D|--2-2-2-0h2------2-0h2--|--2-2-2-0h2------2-0h2--|
A|--3-3-3-3--------3-3----|--0-0-0-0--------0-0----|
E|------------------------|------------------------|



Song Structure:

Intro
Verse
Chorus
Break
Verse
Chorus
Bridge
Chorus
Outro
Tap to rate this tab
# A B C D E F G H I J K L M N O P Q R S T U V W X Y Z